Scandal of Grace - solo riff

01234567891011121314151617181920212223
E
B
G
D
A
E
B
0 1 2 3 4 5 6 7 8 9 10 11 12 13 14 15 16 17 18 19 20 21 22 23
(/) Slide Up  (\) Slide Down  (h) Hammer On  (p) Pull Off  (b) Bend (r) Release (v) Vibrato

Stave 1:

E|-----------------------------------------
B|-----------------10----------------------
G|--------------------------------------9--
D|--11--9--11--12---------11--9--11--7-----
A|-----------------------------------------
E|-----------------------------------------

Stave 2:

E|------------------17---------------------12--
B|--14--12--14--15---------14--12--14--10------
G|---------------------------------------------
D|---------------------------------------------
A|---------------------------------------------
E|---------------------------------------------

Stave 3:

E|--------------5--------------------
B|--------------------------------5--
G|--6--4--6--7--------6--4--6--------
D|-----------------------------7-----
A|-----------------------------------
E|-----------------------------------

							http://www.guitartabcreator.com
Chords

Instruments
{"strings":[[[".",".",".",".",".","_",".",".",".",".","."],[".",".",".",".",10,"_",".",".",".",".","."],[".",".",".",".",".","_",".",".",".",".",9],[11,9,11,12,".","_",11,9,11,7,"."],[".",".",".",".",".","_",".",".",".",".","."],[".",".",".",".",".","_",".",".",".",".","."]],[[".",".",".",".",17,"_",".",".",".",".",12],[14,12,14,15,".","_",14,12,14,10,"."],[".",".",".",".",".","_",".",".",".",".","."],[".",".",".",".",".","_",".",".",".",".","."],[".",".",".",".",".","_",".",".",".",".","."],[".",".",".",".",".","_",".",".",".",".","."]],[[".",".",".",".",5,"_",".",".",".",".","."],[".",".",".",".",".","_",".",".",".",".",5],[6,4,6,7,".","_",6,4,6,".","."],[".",".",".",".",".","_",".",".",".",7,"."],[".",".",".",".",".","_",".",".",".",".","."],[".",".",".",".",".","_",".",".",".",".","."]]],"numberofstrings":6,"notes":["E","B","G","D","A","E","B"],"capo":0,"stringnotes":["E4","B3","G3","D3","A2","E2"],"comments":["Stave 1:","Stave 2:","Stave 3:"],"timing":[["W","W","W","W","W",null,"W","W","W","W","W"],["W","W","W","W","W",null,"W","W","W","W","W"],["W","W","W","W","W",null,"W","W","W","W","W"]],"timingvisible":false,"tabcounter":11,"stave":2,"totalstaves":3,"instrument":"6guitar","selectedtuning":"6_standard","version":"13"}

Member for

2 months 1 week
About Me
Blues man
Submitted by EnriqueP on Mon, 2020-11-30 22:23