Great light of the world solos

Chords

01234567891011121314151617181920212223
E
B
G
D
A
E
B
0 1 2 3 4 5 6 7 8 9 10 11 12 13 14 15 16 17 18 19 20 21 22 23
(/) Slide Up  (\) Slide Down  (h) Hammer On  (p) Pull Off  (b) Bend (r) Release (v) Vibrato

Stave 1:

E|-------------------------------|---------------------7h10v--
B|-------------------------------|--------8h10--8--10---------
G|--7h9v-----7h9--7--9-----------|--7h9v----------------------
D|----------------------7h9v-----|----------------------------
A|-------------------------------|----------------------------
E|-------------------------------|----------------------------

Stave 2:

E|---------------------------------------------------------|----------------------------------------------------
B|--------------------------------------------------15-----|--15h17--15v-------------------------15-------------
G|-----------------12v------------12--12h14--14b16---------|--------------16v---------12--14b16----b14r16--12v--
D|------12--12h14-------------14---------------------------|----------------------14----------------------------
A|--14-----------------------------------------------------|----------------------------------------------------
E|---------------------------------------------------------|----------------------------------------------------

							http://www.guitartabcreator.com
Instruments
{"strings":[[[".",".",".",".","_",".",".",".",".",".",".",".",".",".","_","|",".",".",".",".",".",".",".",".",".",7,"h",10,"v"],[".",".",".",".","_",".",".",".",".",".",".",".",".",".","_","|",".",".",".",".",8,"h",10,8,10,".",".",".","."],[7,"h",9,"v","_",7,"h",9,7,9,".",".",".",".","_","|",7,"h",9,"v",".",".",".",".",".",".",".",".","."],[".",".",".",".","_",".",".",".",".",".",7,"h",9,"v","_","|",".",".",".",".",".",".",".",".",".",".",".",".","."],[".",".",".",".","_",".",".",".",".",".",".",".",".",".","_","|",".",".",".",".",".",".",".",".",".",".",".",".","."],[".",".",".",".","_",".",".",".",".",".",".",".",".",".","_","|",".",".",".",".",".",".",".",".",".",".",".",".","."]],[[".",".",".",".",".",".",".","_","_",".",".",".",".",".",".",".",".",".","_","|",".",".",".",".",".",".",".","_",".",".",".",".",".",".",".",".",".",".",".","."],[".",".",".",".",".",".",".","_","_",".",".",".",".",".",".",".",".",15,"_","|",15,"h",17,15,"v",".",".","_",".",".",".",".",".",15,".",".",".",".",".","."],[".",".",".",".",".",12,"v","_","_",".",12,12,"h",14,14,"b",16,".","_","|",".",".",".",".",".",16,"v","_",".",12,14,"b",16,".","b",14,"r",16,12,"v"],[".",12,12,"h",14,".",".","_","_",14,".",".",".",".",".",".",".",".","_","|",".",".",".",".",".",".",".","_",14,".",".",".",".",".",".",".",".",".",".","."],[14,".",".",".",".",".",".","_","_",".",".",".",".",".",".",".",".",".","_","|",".",".",".",".",".",".",".","_",".",".",".",".",".",".",".",".",".",".",".","."],[".",".",".",".",".",".",".","_","_",".",".",".",".",".",".",".",".",".","_","|",".",".",".",".",".",".",".","_",".",".",".",".",".",".",".",".",".",".",".","."]]],"numberofstrings":6,"notes":["E","B","G","D","A","E","B"],"capo":0,"stringnotes":["E4","B3","G3","D3","A2","E2"],"comments":["Stave 1:","Stave 2:"],"timing":[["W","W","W",null,"W","W","W","W","W","W","W",null,"W",null,null,null,"W",null,"W",null,"W",null,"W","W","W","W",null,"W"],["W","W","W",null,"W","W",null,null,null,"W","W","W",null,"W","W",null,"W","W",null,null,"W","W","W","W","W","W",null,null,"W","W","W",null,"W","W","W","W","W","W","W"]],"timingvisible":false,"tabcounter":40,"stave":1,"totalstaves":2,"instrument":"6guitar","selectedtuning":"6_standard","version":"13"}

Member for

2 weeks 3 days
About Me
Blues man
Submitted by EnriqueP on Sat, 2020-11-21 21:40