Build My Life - riffs in Key of E

01234567891011121314151617181920212223
E
B
G
D
A
E
B
0 1 2 3 4 5 6 7 8 9 10 11 12 13 14 15 16 17 18 19 20 21 22 23
(/) Slide Up  (\) Slide Down  (h) Hammer On  (p) Pull Off  (b) Bend (r) Release (v) Vibrato

Stave 1:

E|--------------------
B|--------------------
G|-----13--14--13--9--
D|--------------------
A|--------------------
E|--------------------

Stave 2:

E|--------------|----------------
B|--------------|---------9--12--
G|--------------|--9--11---------
D|--------6--9--|----------------
A|--7--9--------|----------------
E|--------------|----------------

							http://www.guitartabcreator.com
Chords

Instruments
{"strings":[[["_",".",".",".","."],["_",".",".",".","."],["_",13,14,13,9],["_",".",".",".","."],["_",".",".",".","."],["_",".",".",".","."]],[[".",".",".",".","|",".",".",".","."],[".",".",".",".","|",".",".",9,12],[".",".",".",".","|",9,11,".","."],[".",".",6,9,"|",".",".",".","."],[7,9,".",".","|",".",".",".","."],[".",".",".",".","|",".",".",".","."]]],"numberofstrings":6,"notes":["E","B","G","D","A","E","B"],"capo":0,"stringnotes":["E4","B3","G3","D3","A2","E2"],"comments":["Stave 1:","Stave 2:"],"timing":[[null,"W","W","W","W"],["W","W","W","W",null,"W","W","W","W"]],"timingvisible":false,"tabcounter":9,"stave":1,"totalstaves":2,"instrument":"6guitar","selectedtuning":"6_standard","version":"13"}

Member for

2 months 1 week
About Me
Blues man
Submitted by EnriqueP on Mon, 2020-11-30 23:09