Skip to main content

mon amour-3chord simple

0 1 2 3 4 5 6 7 8 9 10 11 12 13 14 15 16 17 18 19 20 21 22 23
E
B
G
D
A
E
0 1 2 3 4 5 6 7 8 9 10 11 12 13 14 15 16 17 18 19 20 21 22 23
(/) Slide Up  (\) Slide Down  (h) Hammer On  (p) Pull Off  (b) Bend (r) Release (v) Vibrato

Stave 1:

E|-----0--------0--------0--------0-----------|-----------------0-----0-----------3--4--3-----------------1-----1--
B|-----1--------1--------1--------1-----------|-----5--3--5-----1-----1-----5--6-----------6--5--3--5-----3-----3--
G|-----2--------2--------2--------2-----------|-----------------2-----2-----------------------------------2-----2--
D|-----2--------2--------2--------2-----------|-----------------2-----2-----------------------------------0-----0--
A|-----0--------0--------0--------0-----------|--------------------------------------------------------------------
E|--------------------------------------------|--------------------------------------------------------------------

Stave 2:

E|-----------3--5--7-----|--0-----3--3--1--1--0--0--0-----------------0--------------------------0-----
B|-----5--6--------------|--0-----------------------0-----3--3--1--3-----1--0--1--3--0-----------1-----
G|-----------------------|--1-----------------------1--------------------------------------2-----2-----
D|-----------------------|--2-----------------------2--------------------------------------------2-----
A|-----------------------|--2-----------------------2--------------------------------------------0-----
E|-----------------------|--0-----------------------0--------------------------------------------------

							https://www.guitartabcreator.com
Chords

genre
Instruments
{"strings":[[["_",0,"_","_",0,"_","_",0,"_","_",0,"_","_","_","|","_","_","_","_","_",0,"_",0,"_","_","_",3,4,3,"_","_","_","_","_",1,"_",1],["_",1,"_","_",1,"_","_",1,"_","_",1,"_","_","_","|","_",5,3,5,"_",1,"_",1,"_",5,6,"_","_","_",6,5,3,5,"_",3,"_",3],["_",2,"_","_",2,"_","_",2,"_","_",2,"_","_","_","|","_","_","_","_","_",2,"_",2,"_","_","_","_","_","_","_","_","_","_","_",2,"_",2],["_",2,"_","_",2,"_","_",2,"_","_",2,"_","_","_","|","_","_","_","_","_",2,"_",2,"_","_","_","_","_","_","_","_","_","_","_",0,"_",0],["_",0,"_","_",0,"_","_",0,"_","_",0,"_","_","_","|","_","_","_","_","_","_","_","_","_","_","_","_","_","_","_","_","_","_","_","_","_","_"],["_","_","_","_","_","_","_","_","_","_","_","_","_","_","|","_","_","_","_","_","_","_","_","_","_","_","_","_","_","_","_","_","_","_","_","_","_"]],[["_","_","_",3,5,7,"_","|",0,"_",3,3,1,1,0,0,0,"_","_","_","_","_",0,"_","_","_","_","_","_","_","_",0,"_"],["_",5,6,"_","_","_","_","|",0,"_","_","_","_","_","_","_",0,"_",3,3,1,3,"_",1,0,1,3,0,"_","_","_",1,"_"],["_","_","_","_","_","_","_","|",1,"_","_","_","_","_","_","_",1,"_","_","_","_","_","_","_","_","_","_","_","_",2,"_",2,"_"],["_","_","_","_","_","_","_","|",2,"_","_","_","_","_","_","_",2,"_","_","_","_","_","_","_","_","_","_","_","_","_","_",2,"_"],["_","_","_","_","_","_","_","|",2,"_","_","_","_","_","_","_",2,"_","_","_","_","_","_","_","_","_","_","_","_","_","_",0,"_"],["_","_","_","_","_","_","_","|",0,"_","_","_","_","_","_","_",0,"_","_","_","_","_","_","_","_","_","_","_","_","_","_","_","_"]]],"numberofstrings":6,"notes":["E","B","G","D","A","E","B"],"capo":0,"stringnotes":["E4","B3","G3","D3","A2","E2"],"comments":["Stave 1:","Stave 2:"],"timing":[["Q","Q","Q","Q","Q","Q","Q","Q","Q","Q","Q","Q","Q","Q",null,"Q","Q","Q","Q","Q","Q","Q","Q","Q","Q","Q","Q","Q","Q","Q","Q","Q","Q","Q","Q","Q","Q","Q"],["Q","Q","Q","Q","Q","Q","Q",null,"Q","Q","Q","Q","Q","Q","Q","Q","Q","Q","Q","Q","Q","Q","Q","Q","Q","Q","Q","Q","Q","Q","Q","Q","Q","Q"]],"timingvisible":false,"tabcounter":33,"stave":1,"totalstaves":2,"instrument":"6guitar","selectedtuning":"6_standard","version":"13"}
Submitted by enriquemiguel382 on