Lifetime riff 1

Chords

01234567891011121314151617181920212223
E
B
G
D
A
E
B
0 1 2 3 4 5 6 7 8 9 10 11 12 13 14 15 16 17 18 19 20 21 22 23
(/) Slide Up  (\) Slide Down  (h) Hammer On  (p) Pull Off  (b) Bend (r) Release (v) Vibrato

Guitar 1:

E|--------------------------------------------------------------------------------
B|--------------12----------------------15--------------8--7----------------------
G|--------------12------------------16------------------------7----------------4--
D|--------------12--------------17-------------------------------9----------5-----
A|-----------------------------------------------------------------------5--------
E|--0--0--0--0------0--0--0--0--------------0--0--0--0--------------7\3-----------

Guitar 2:

E|--------------------------------------14----------------------------------------
B|--------------12------------------12------------------8--7----------------------
G|--------------12--------------12----------------------------7----------------4--
D|--------------12-----------------------------------------------9----------5-----
A|-----------------------------------------------------------------------5--------
E|--0--0--0--0------0--0--0--0--------------0--0--0--0--------------7\3-----------

							http://www.guitartabcreator.com
genre
Instruments
{"strings":[[[".",".",".",".",".",".",".",".",".",".",".",".",".",".",".",".",".",".",".",".",".",".",".",".",".","."],[".",".",".",".",12,".",".",".",".",".",".",15,".",".",".",".",8,7,".",".",".",".",".",".",".","."],[".",".",".",".",12,".",".",".",".",".",16,".",".",".",".",".",".",".",7,".",".",".",".",".",".",4],[".",".",".",".",12,".",".",".",".",17,".",".",".",".",".",".",".",".",".",9,".",".",".",".",5,"."],[".",".",".",".",".",".",".",".",".",".",".",".",".",".",".",".",".",".",".",".",".",".",".",5,".","."],[0,0,0,0,".",0,0,0,0,".",".",".",0,0,0,0,".",".",".",".",7,"\\",3,".",".","."]],[[".",".",".",".",".",".",".",".",".",".",".",14,".",".",".",".",".",".",".",".",".",".",".",".",".","."],[".",".",".",".",12,".",".",".",".",".",12,".",".",".",".",".",8,7,".",".",".",".",".",".",".","."],[".",".",".",".",12,".",".",".",".",12,".",".",".",".",".",".",".",".",7,".",".",".",".",".",".",4],[".",".",".",".",12,".",".",".",".",".",".",".",".",".",".",".",".",".",".",9,".",".",".",".",5,"."],[".",".",".",".",".",".",".",".",".",".",".",".",".",".",".",".",".",".",".",".",".",".",".",5,".","."],[0,0,0,0,".",0,0,0,0,".",".",".",0,0,0,0,".",".",".",".",7,"\\",3,".",".","."]]],"numberofstrings":6,"notes":["E","B","G","D","A","E","B"],"capo":0,"stringnotes":["E4","B3","G3","D3","A2","E2"],"comments":["Guitar 1:","Guitar 2:"],"timing":[["W","W","W","W","W","W","W","W","W","W","W","W","W","W","W","W","W","W","W","W","W",null,"W","W","W","W"],["W","W","W","W","W","W","W","W","W","W","W","W","W","W","W","W","W","W","W","W","W",null,"W","W","W","W"]],"timingvisible":false,"tabcounter":26,"stave":1,"totalstaves":2,"instrument":"6guitar","selectedtuning":"6_standard","version":"13"}

Member for

2 months 2 weeks
Submitted by enricoukka on Sun, 2020-11-01 05:54