Sound will begin in 5 seconds

run to the hills solo

01234567891011121314151617181920212223
E
B
G
D
A
E
B
0 1 2 3 4 5 6 7 8 9 10 11 12 13 14 15 16 17 18 19 20 21 22 23
Song Science #1: How Pros Use 6 Chords to Write Hit Songs
(/) Slide Up  (\) Slide Down  (h) Hammer On  (p) Pull Off  (b) Bend (r) Release (v) Vibrato

Stave 1:

E|-----------------------------------------------------------------------
B|--0/15h17--17--15h17p15--15h17p15h17p15--14h16p14--14h16p14h16p14------
G|-------------------------------------------------------------------14--
D|-----------------------------------------------------------------------
A|-----------------------------------------------------------------------
E|-----------------------------------------------------------------------

Stave 2:

E|----------------------------------------------------------12h15p12------
B|------------------------------12h15p12------12h15p12----------------15--
G|--12h14p12------12h14p12----------------14------------14----------------
D|------------14------------14--------------------------------------------
A|------------------------------------------------------------------------
E|------------------------------------------------------------------------

Stave 3:

E|------12------12------------12h15p12h15p12h15p12------------------------
B|--15------15------15b17r15------------------------12h15p12h15p12h15p12--
G|------------------------------------------------------------------------
D|------------------------------------------------------------------------
A|------------------------------------------------------------------------
E|------------------------------------------------------------------------

Stave 4:

E|----------------------------------17----------------------17--19b21v--19--
B|--------------------------------------15--17------17--15------------------
G|--12h14p12h14p12h14p12--14b16p12--------------14--------------------------
D|--------------------------------------------------------------------------
A|--------------------------------------------------------------------------
E|--------------------------------------------------------------------------

http://www.guitartabcreator.com
Guitar Tab Creator is intended to store guitar tab created through the tool. It currently does not support in-line text editing. Any text you place in here will be lost. If you need to comment on your tab, please use the "Tab Notes" section located below.