Sound will begin in 5 seconds

Witcher 3: Wild Hunt - Geralt of Rivia

Chords
01234567891011121314151617181920212223
E
B
G
D
A
E
B
0 1 2 3 4 5 6 7 8 9 10 11 12 13 14 15 16 17 18 19 20 21 22 23
Song Science #1: How Pros Use 6 Chords to Write Hit Songs
(/) Slide Up  (\) Slide Down  (h) Hammer On  (p) Pull Off  (b) Bend (r) Release (v) Vibrato

Stave 1:

E|-------------|-----------|-----------|---------|---------------|-
B|-----------0-|-----------|-0---------|---------|-----------0---|-
G|-0-----0-0---|-2-----0-0-|-------0-0-|-----0---|---------------|-
D|-----2-------|-----2-----|-----2-----|-----2-0-|-2-----2-2-----|-
A|---2---------|---2-------|---2-------|---2-2---|-3---3-----3---|-
E|-0-----------|-0---------|-0---------|-0-------|---3---------3-|-

Stave 2:

E|-----------------|---------------|---------------|-0-----------|-
B|-----------------|---------------|---------------|---------3---|-
G|-2---------------|-0-------0-----|---------4-----|-0---0-----2-|-
D|-2-------2-4-----|-2-----2---2---|-4-----4-------|-2-------0-4-|-
A|-3-0-3-0---5-3-0-|-3---3-------3-|-5---5-----5---|---2---2---0-|-
E|-----------------|---3-----------|-7-7---------7-|-0-------2---|-

Stave 3:

E|-------------|-----------------|-------------|-
B|-0---------3-|-----0-----------|---------3---|-
G|-0---0-----2-|-0-------2---0---|---------2---|-
D|-0-0---0-4-0-|-2-----2---2-----|-4-----4-0---|-
A|-2-------3---|-3---3-------3---|-5---5-----0-|-
E|-3-------5---|---3-----------3-|-5-5---------|-

Stave 4:

E|-----------------|-----------------|-0---0---0---0---0---0---0---0---
B|---0---0---0---0-|---0---0---0---0-|-1---1---1---1---1---1---1---1---
G|-0---0---0---0---|-0---0---0---0---|---0---0---0---0---0---0---0---0-
D|-2-----------4---|---------2-------|---------------------------------
A|-2---------------|-------0---------|-3-----3-----3---3-----3-----3---
E|-0-----------2---|-3-------0-------|---------------------------------

Stave 5:

E|-2---2---2---2---3---3---3---3---|-3---3---3---3---3---2---0---|-
B|-3---3---3---3---4---4---4---4---|-5---5---5---5---5-----------|-
G|---2---2---2---2---2---2---2---2-|---4---4---4---4---4---4---4-|-
D|-0-----0-----0---0-----1-----1---|---------2-------------------|-
A|---------------------------------|-----------------------------|-
E|---------------------------------|-0-------0-------0---2-------|-

Stave 6:

E|-3---0---0---5---0---------------|-0-------7-------5-------2-------|-
B|---0---0---0---0-----0---0---0---|-1---1-------5-------5-------5---|-
G|-------------------0---0---0---0-|---0---0---5---5---5---5---5---5-|-
D|-----------------------2-----2---|---------------------------------|-
A|-------------0-------------------|-3-------3-------3---------------|-
E|-3---------------0-----0-----0---|---------------------------------|-

Stave 7:

E|-3-----------2-3-5---------------|-7---------------------0---------|-
B|-----3---3---------0-4-0-4-0-4-0-|-8-0-5-0-8-0-5-0-8-0-5---8-0-5-0-|-
G|---2---2---2---------------------|---------------------------------|-
D|-0-----0-----0---0-----1-----1---|---------------------------------|-
A|---------------------------------|---------------------------------|-
E|---------------------------------|-0-----0-----0---0-----0-----0---|-

Stave 8:

E|-----------------8-------7-------|-6-------3-------8-------3-------|-
B|-8-0-5-0-8-0-5-0---5---5-----5---|-----5-------5-------5-------5---|-
G|---------------------5-----4---4-|---3---3---3---3---5---5---5---5-|-
D|---------------------------------|---------------------------------|-
A|---------------------------------|---------------------------------|-
E|-0-----0-----0---0-------0-------|-0-------0-------0-------0-------|-

Stave 9:

E|-7-------3---------------7-------|-5-----------7-5-2-----------5---|-
B|---0-5-0---0-5-0-5-0-5-------5---|-----5---5-----------5---5-------|-
G|-----------------------4---4---4-|---5---5---5-------5---5---5---5-|-
D|-------------------------2-------|---------2---------------2-------|-
A|---------------------2-------2---|-----3-------3-------3-------3---|-
E|-0-----0-----0---0---------------|-0---------------0---------------|-

Stave 10:

E|-3---5---7-----------------------|-------------------------7-------|-
B|-5-0-7-0-8-0-5---5---5---5---5---|-5---5---5---5---5---5-------5---|-
G|---------------4---5---5---5---5-|---7---7---7---7---7---7---7---7-|-
D|---------------------------------|---------------------------------|-
A|-------------------------7-------|-----5---7---5-----------7---5---|-
E|-0---7---0---7---0---8-------8---|-0---------------0---0-----------|-

Stave 11:

E|-5-----------7-10-7---------------|-------|-0-----------7---|-
B|-----4---4------------4---4---4---|-0-----|---------0-------|-
G|---4---4---4--------4---4---4---4-|-0-----|-0-------0---4---|-
D|---------1----------------1-------|-1-----|-2-----2---2-----|-
A|-----2----------------2-------2---|-2-----|-----2-----------|-
E|-0-----------0----0---------------|-0-0-0-|-0-0---------7-0-|-

Stave 12:

E|-5-------10-------|-7-------7-------|-------5-3-2-3-0-|-0-----------7---|-
B|-3-------8--------|-8-------8-------|-----------0-----|-----------------|-
G|-2---2------7-----|-9-----9---9-----|-----------0-----|-0-------0---4---|-
D|--------------7---|-9---9-------9---|-------2-----2---|-2-----2---2-----|-
A|---5---5--------7-|-7-7-----------7-|-----2---------2-|-3---3-------3---|-
E|-2-------10-------|-----------------|-0-0-------------|---3-----------3-|-

Stave 13:

E|-5-------2-------|-3-2-0---------3---|-1---0-------0---2-5-|-0-------7-5---10---|-7-----------------|-
B|-3---------------|-----------2-------|-0-3-------3---------|-----------0--------|-8-----------------|-
G|-2-------0-------|-2-------2---2-----|---------------------|-0-----0---2-0-7----|-9-----------------|-
D|-------2-4-2-----|-------2-------2---|-----------0-----0---|-2---2---4--------9-|----------9--------|-
A|-3---3-----------|-0---0-----------0-|-3-----3-------0---0-|---2-----------7----|-7---7-10---10-7---|-
E|---3---------3-3-|-------------------|-----3---3-----------|-0------------------|---7-------------7-|-

Stave 14:

E|-0-------7-5-7-10-12-|-7-----0-2-3-2-0---0---|-0---7-5-2-3-----3-5-|-0---7-5-2-3-2-0---2-|-0---------|-
B|-----------0---------|-----------0-----3---3-|-1-------1-5---------|-1---------5-----3---|-----------|-
G|-0-----0---2---7--9--|-4-----0-------0-------|-------0---5-5-------|-------2---5---------|-0-----0-0-|-
D|-2---2---4---4-------|-----2-------------2---|---------------5-----|---2-----2---------4-|-----2---2-|-
A|---2-----------7--7--|---2-----------------2-|-3-3-----------------|-0---------3-----2---|---2-----2-|-
E|-0-------------------|-0---------------------|-----------------3---|-------------3-------|-0-------0-|-

http://www.guitartabcreator.com
Guitar Tab Creator is intended to store guitar tab created through the tool. It currently does not support in-line text editing. Any text you place in here will be lost. If you need to comment on your tab, please use the "Tab Notes" section located below.