Sound will begin in 5 seconds

Songs of Yesterday - Free

01234567891011121314151617181920212223
E
B
G
D
A
E
B
0 1 2 3 4 5 6 7 8 9 10 11 12 13 14 15 16 17 18 19 20 21 22 23
Song Science #1: How Pros Use 6 Chords to Write Hit Songs
(/) Slide Up  (\) Slide Down  (h) Hammer On  (p) Pull Off  (b) Bend (r) Release (v) Vibrato

Stave 1:

E|---------------------------------------------------------------------------------------------
B|---------------------------------------------------------------------------------------------
G|--------7--7--------7--7--------7--7--------------------7--7-----------7-----0---------------
D|--------------------------------------------------------------------------5-----------12-----
A|--5--5--------5--5--------5--5--------------5-----5--5--------5--5--------------5\12------12/
E|--------------------------------------5--7-----7---------------------------------------------

Stave 2:

E|----------------------------------------------------------------------------------------------------
B|----------------------------------------------------------------------------------------------------
G|--------7--7-------------------7--7-----------------------7--7--------7--7--------------------------
D|----------------------------------------------------------------------------------------------------
A|--5--5--------5--5-------5--5--------5--------------5--5--------5--5--------5--------------2--3--4--
E|--------------------5h7-----------------3--4--5--7-----------------------------0--3--4--5-----------

Stave 3:

E|-----------------------------------------------------------------------------------------------
B|-----------------------------------------------------------------------------------------------
G|--------7--------7--7--------5--5--------------------7--7--------7--7--------5--5--------7--7--
D|-----------------------------------------------------------------------------------------------
A|--5--5-----5--5--------3--3--------------5-----5--5--------5--5--------3--3--------5--5--------
E|-----------------------------------5--7-----7--------------------------------------------------

Stave 4:

E|--------------------------------------------------------------------------------------
B|--------------------------------------------------------------------------------------
G|--------7--7--------7--7--------------------7--7--------------------7--7--------------
D|--------------------------------------------------------------------------------------
A|--5--5--------5--5--------------5-----5--5--------5--5--------5--5--------5--5--------
E|--------------------------5--7-----7--------------------7--5--------------------7--5--

Stave 5:

E|------------------------------------------------------------------------------
B|------------------------------------------------------------------------------
G|--------7--7--------7--7--------5--5------------------------------------------
D|--------------------------------------4--5--6--7--12v-------------------------
A|--5--5--------5--5--------3--3-------------------------14--14--14--12--10-----
E|---------------------------------------------------------------------------10/

Stave 6:

E|------------------------------------------------------------------------------------------------------
B|------------------------------------------------------------------------------------------------------
G|--------7--7--------------------7--7-----------------------5--5---------------------------------------
D|-----------------------------------------------------------------4--5--6--7------------------5--6--7--
A|--5--5--------------5-----5--5--------5-----------2--3--3--------------------5v--3--3--3--2-----------
E|--------------5--7-----7-----------------3--4--5------------------------------------------------------

Stave 7:

E|--------------------------------------------------------------------------------------
B|--------------------------------------------------------------------------------------
G|--------7--7--------7--7--------5--5--------------------7--7--------7--7--------5--5--
D|--------------------------------------------------------------------------------------
A|--5--5--------5--5--------3--3--------------------5--5--------5--5--------3--3--------
E|--------------------------------------3--4--5--7--------------------------------------

Stave 8:

E|-------------------------------------------------------------------------------
B|-------------------------------------------------------------------------------
G|--------7--5--------7--7--------7--7--------------------7--7--------7--7-------
D|-----------------------------------------------------------------------------5b
A|--5--5--------5--5--------5--5--------5-----------5--5--------5--5--------5----
E|-----------------------------------------3--4--5-------------------------------

Stave 9:

E|-------------------------------------------------------------------------------------------------
B|-------------------------------------------------------------------------------------------------
G|--------7--7--------7--7--------7--7--------------------5--5------------------12p11--------------
D|--------------------------------------------------------------4--5--6--7--12---------14--12------
A|--5--5--------5--5--------5--5--------------5-----3--3---------------------------------------10--
E|--------------------------------------5--7-----7-------------------------------------------------

Stave 10:

E|----------------
B|----------------
G|----------------
D|--10p9----------
A|--------12--10--
E|----------------

Stave 11:

E|--
B|--
G|--
D|--
A|--
E|--

http://www.guitartabcreator.com
Guitar Tab Creator is intended to store guitar tab created through the tool. It currently does not support in-line text editing. Any text you place in here will be lost. If you need to comment on your tab, please use the "Tab Notes" section located below.