Seishun Buta Yarou Wa Bunny Girl Senpai No Yume Wo Minai - Fukashigi No Karte

01234567891011121314151617181920212223
E
B
G
D
A
E
B
0 1 2 3 4 5 6 7 8 9 10 11 12 13 14 15 16 17 18 19 20 21 22 23
(/) Slide Up  (\) Slide Down  (h) Hammer On  (p) Pull Off  (b) Bend (r) Release (v) Vibrato

Stave 1:

E|-----5--3--5--------5--3--5--------5--3--0--1--------5--3--5--------5-----8--6--5--------5--3--5--8--5--3--0--1--5--------5--3--5--------5--3--1-----0--
B|--3--------------3--------------3-----------------3--------------3-----8--------------3--------------------------------3--------------3-----------2-----
G|--------------------------------------------------------------------------------------------------------------------------------------------------------
D|--------------------------------------------------------------------------------------------------------------------------------------------------------
A|--------------------------------------------------------------------------------------------------------------------------------------------------------
E|--------------------------------------------------------------------------------------------------------------------------------------------------------

Stave 2:

E|-----------------0--1--------
B|--3-----4--4-----------2--3--
G|-----------------------------
D|-----------------------------
A|-----------------------------
E|-----------------------------

							http://www.guitartabcreator.com
Chords

Tab Notes
unfinished
Instruments
{"strings":[[[".",5,3,5,"_",".",5,3,5,"_",".",5,3,0,1,"_",".",5,3,5,"_",".",5,".",8,6,5,"_",".",5,3,5,8,5,3,0,1,5,"_",".",5,3,5,"_",".",5,3,1,".",0],[3,".",".",".","_",3,".",".",".","_",3,".",".",".",".","_",3,".",".",".","_",3,".",8,".",".",".","_",3,".",".",".",".",".",".",".",".",".","_",3,".",".",".","_",3,".",".",".",2,"."],[".",".",".",".","_",".",".",".",".","_",".",".",".",".",".","_",".",".",".",".","_",".",".",".",".",".",".","_",".",".",".",".",".",".",".",".",".",".","_",".",".",".",".","_",".",".",".",".",".","."],[".",".",".",".","_",".",".",".",".","_",".",".",".",".",".","_",".",".",".",".","_",".",".",".",".",".",".","_",".",".",".",".",".",".",".",".",".",".","_",".",".",".",".","_",".",".",".",".",".","."],[".",".",".",".","_",".",".",".",".","_",".",".",".",".",".","_",".",".",".",".","_",".",".",".",".",".",".","_",".",".",".",".",".",".",".",".",".",".","_",".",".",".",".","_",".",".",".",".",".","."],[".",".",".",".","_",".",".",".",".","_",".",".",".",".",".","_",".",".",".",".","_",".",".",".",".",".",".","_",".",".",".",".",".",".",".",".",".",".","_",".",".",".",".","_",".",".",".",".",".","."]],[[".","_",".",".","_",0,1,".","."],[3,"_",4,4,"_",".",".",2,3],[".","_",".",".","_",".",".",".","."],[".","_",".",".","_",".",".",".","."],[".","_",".",".","_",".",".",".","."],[".","_",".",".","_",".",".",".","."]]],"numberofstrings":6,"notes":["E","B","G","D","A","E","B"],"capo":0,"stringnotes":["E4","B3","G3","D3","A2","E2"],"comments":["Stave 1:","Stave 2:"],"timing":[["W","W","W","W",null,"W","W","W","W",null,"W","W","W","W","W",null,"W","W","W","W",null,"W","W","W","W","W","W",null,"W","W","W","W","W","W","W","W","W","W",null,"W","W","W","W",null,"W","W","W","W","W","W"],["W","W","W","W","W","W","W","W","W"]],"timingvisible":false,"tabcounter":9,"stave":1,"totalstaves":2,"instrument":"6guitar","selectedtuning":"6_standard","version":"13"}

Member for

1 month
Picture
Submitted by ellanoexiste on Mon, 2021-01-11 09:03