Sasageyo

Chords

01234567891011121314151617181920212223
E
B
G
D
A
E
B
0 1 2 3 4 5 6 7 8 9 10 11 12 13 14 15 16 17 18 19 20 21 22 23
(/) Slide Up  (\) Slide Down  (h) Hammer On  (p) Pull Off  (b) Bend (r) Release (v) Vibrato

Stave 1:

E|-----0--1-----0-----0--1-----0-----0--1-----0-----------------------------------------------------------------------------------------------------------
B|-----------3--------------3--------------3-----1--3--0--1-----2--3--0--2--2--3--0--------2--3--0--2--2--3--0--------2--3--0--2--2--3--0--------2--3--0--
G|--2--------------2--------------2--------------------------------------------------1--------------------------1--------------------------1--------------
D|-----------------------------------------------------------4--------------------------4--------------------------4--------------------------4-----------
A|--------------------------------------------------------------------------------------------------------------------------------------------------------
E|--------------------------------------------------------------------------------------------------------------------------------------------------------

Stave 2:

E|--------------0--1-----0--0--1-----------0--1-----0--0--1-----------0--1-----0--0--1-----------0--1-----0--0-----------------------------0-----------------
B|--2-----------------3-----------3--------------3-----------3--------------3-----------3--------------3-----------2--0-----------------2-----0--2-----------
G|--------2--2-----------------------2--2-----------------------2--2-----------------------2--2-----------------1--------2--1-----1--2-----------------1--2--
D|-----3-----------------------------------------------------------------------------------------------------------------------4--------------------4--------
A|-----------------------------------------------------------------------------------------------------------------------------------------------------------
E|-----------------------------------------------------------------------------------------------------------------------------------------------------------

Stave 3:

E|-----------------0--2--0--------0--------------------0-----------3--3--0--------------------0--0--------------------0-----------------3--0-----------------
B|--2--0--------------------0--2-----3--1--0-----0--1-----3--1--3-----------3--1--0-----0--1--------3--1--0-----0--1-----3--1--0--1--3--------3--1--0-----0--
G|--------2--1--------------------------------2--------------------------------------2-----------------------2-----------------------------------------2-----
D|--------------4--------------------------------------------------------------------------------------------------------------------------------------------
A|-----------------------------------------------------------------------------------------------------------------------------------------------------------
E|-----------------------------------------------------------------------------------------------------------------------------------------------------------

Stave 4:

E|-----0--3-----0--0--1--0--1--2-----2--5--5--4--------------1--1--0--0-----------------------------------------1--1--0--0--------------------1--5--4--4-----
B|--1--------3--------------------4--------------0--1--3--3--------------1--1--3--1--0-----------------1--3--3--------------3--1--1--3--0--3--------------3--
G|--------------------------------------------------------------------------------------2--2--0--0--0--------------------------------------------------------
D|-----------------------------------------------------------------------------------------------------------------------------------------------------------
A|-----------------------------------------------------------------------------------------------------------------------------------------------------------
E|-----------------------------------------------------------------------------------------------------------------------------------------------------------

Stave 5:

E|-----1--1--4--4--3--3--------1--------------------------1--1--4--4--3--3--1--------1--------------3--4--1--3-----3--4--1--3-----3--4--1--3-----1-----------
B|--4--------------------4--4-----4--3--1--1-----------4-----------------------4--4-----4--3-----1--------------1--------------1--------------4-----3--4--4--
G|--------------------------------------------3--3--3-----------------------------------------3--------------------------------------------------------------
D|-----------------------------------------------------------------------------------------------------------------------------------------------------------
A|-----------------------------------------------------------------------------------------------------------------------------------------------------------
E|-----------------------------------------------------------------------------------------------------------------------------------------------------------

Stave 6:

E|--6--7--4--6-----6--7--4--6-----6--7--4--6--2--4--1--2-----
B|--------------4--------------4--------------------------4--
G|-----------------------------------------------------------
D|-----------------------------------------------------------
A|-----------------------------------------------------------
E|-----------------------------------------------------------

							http://www.guitartabcreator.com
Instruments
{"strings":[[[".",0,1,".",0,".",0,1,".",0,".",0,1,".",0,".",".",".",".",".",".",".",".",".",".",".",".",".",".",".",".",".",".",".",".",".",".",".",".",".",".",".",".",".",".",".",".",".",".",".","."],[".",".",".",3,".",".",".",".",3,".",".",".",".",3,".",1,3,0,1,".",2,3,0,2,2,3,0,".",".",2,3,0,2,2,3,0,".",".",2,3,0,2,2,3,0,".",".",2,3,0,0],[2,".",".",".",".",2,".",".",".",".",2,".",".",".",".",".",".",".",".",".",".",".",".",".",".",".",".",1,".",".",".",".",".",".",".",".",1,".",".",".",".",".",".",".",".",1,".",".",".",".","."],[".",".",".",".",".",".",".",".",".",".",".",".",".",".",".",".",".",".",".",4,".",".",".",".",".",".",".",".",4,".",".",".",".",".",".",".",".",4,".",".",".",".",".",".",".",".",4,".",".",".","."],[".",".",".",".",".",".",".",".",".",".",".",".",".",".",".",".",".",".",".",".",".",".",".",".",".",".",".",".",".",".",".",".",".",".",".",".",".",".",".",".",".",".",".",".",".",".",".",".",".",".","."],[".",".",".",".",".",".",".",".",".",".",".",".",".",".",".",".",".",".",".",".",".",".",".",".",".",".",".",".",".",".",".",".",".",".",".",".",".",".",".",".",".",".",".",".",".",".",".",".",".",".","."]],[[".",".",".",".",0,1,".",0,0,1,".",".",".",0,1,".",0,0,1,".",".",".",0,1,".",0,0,1,".",".",".",0,1,".",0,0,".",".",".",".",".",".",".",".",".",0,".",".",".",".","."],[2,".",".",".",".",".",3,".",".",".",3,".",".",".",".",3,".",".",".",3,".",".",".",".",3,".",".",".",3,".",".",".",".",3,".",".",".",2,0,".",".",".",".",".",2,".",0,2,".",".","."],[".",".",2,2,".",".",".",".",".",".",".",2,2,".",".",".",".",".",".",".",2,2,".",".",".",".",".",".",".",2,2,".",".",".",".",".",1,".",".",2,1,".",1,2,".",".",".",".",".",1,2],[".",3,".",".",".",".",".",".",".",".",".",".",".",".",".",".",".",".",".",".",".",".",".",".",".",".",".",".",".",".",".",".",".",".",".",".",".",".",".",".",".",4,".",".",".",".",".",".",4,".","."],[".",".",".",".",".",".",".",".",".",".",".",".",".",".",".",".",".",".",".",".",".",".",".",".",".",".",".",".",".",".",".",".",".",".",".",".",".",".",".",".",".",".",".",".",".",".",".",".",".",".","."],[".",".",".",".",".",".",".",".",".",".",".",".",".",".",".",".",".",".",".",".",".",".",".",".",".",".",".",".",".",".",".",".",".",".",".",".",".",".",".",".",".",".",".",".",".",".",".",".",".",".","."]],[[".",".",".",".",".",0,2,0,".",".",0,".",".",".",".",".",".",0,".",".",".",3,3,0,".",".",".",".",".",".",0,0,".",".",".",".",".",".",0,".",".",".",".",".",3,0,".",".",".",".","."],[2,0,".",".",".",".",".",".",0,2,".",3,1,0,".",0,1,".",3,1,3,".",".",".",3,1,0,".",0,1,".",".",3,1,0,".",0,1,".",3,1,0,1,3,".",".",3,1,0,".",0],[".",".",2,1,".",".",".",".",".",".",".",".",".",".",2,".",".",".",".",".",".",".",".",".",".",".",".",2,".",".",".",".",".",".",".",2,".",".",".",".",".",".",".",".",".",".",".",".",".",2,"."],[".",".",".",".",4,".",".",".",".",".",".",".",".",".",".",".",".",".",".",".",".",".",".",".",".",".",".",".",".",".",".",".",".",".",".",".",".",".",".",".",".",".",".",".",".",".",".",".",".",".","."],[".",".",".",".",".",".",".",".",".",".",".",".",".",".",".",".",".",".",".",".",".",".",".",".",".",".",".",".",".",".",".",".",".",".",".",".",".",".",".",".",".",".",".",".",".",".",".",".",".",".","."],[".",".",".",".",".",".",".",".",".",".",".",".",".",".",".",".",".",".",".",".",".",".",".",".",".",".",".",".",".",".",".",".",".",".",".",".",".",".",".",".",".",".",".",".",".",".",".",".",".",".","."]],[[".",0,3,".",0,0,1,0,1,2,".",2,5,5,4,".",".",".",".",1,1,0,0,".",".",".",".",".",".",".",".",".",".",".",".",".",1,1,0,0,".",".",".",".",".",".",1,5,4,4,"."],[1,".",".",3,".",".",".",".",".",".",4,".",".",".",".",0,1,3,3,".",".",".",".",1,1,3,1,0,".",".",".",".",".",1,3,3,".",".",".",".",3,1,1,3,0,3,".",".",".",".",3],[".",".",".",".",".",".",".",".",".",".",".",".",".",".",".",".",".",".",".",".",".",".",".",".",".",".",".",".",2,2,0,0,0,".",".",".",".",".",".",".",".",".",".",".",".",".",".",".",".",".","."],[".",".",".",".",".",".",".",".",".",".",".",".",".",".",".",".",".",".",".",".",".",".",".",".",".",".",".",".",".",".",".",".",".",".",".",".",".",".",".",".",".",".",".",".",".",".",".",".",".",".","."],[".",".",".",".",".",".",".",".",".",".",".",".",".",".",".",".",".",".",".",".",".",".",".",".",".",".",".",".",".",".",".",".",".",".",".",".",".",".",".",".",".",".",".",".",".",".",".",".",".",".","."],[".",".",".",".",".",".",".",".",".",".",".",".",".",".",".",".",".",".",".",".",".",".",".",".",".",".",".",".",".",".",".",".",".",".",".",".",".",".",".",".",".",".",".",".",".",".",".",".",".",".","."]],[[".",1,1,4,4,3,3,".",".",1,".",".",".",".",".",".",".",".",1,1,4,4,3,3,1,".",".",1,".",".",".",".",3,4,1,3,".",3,4,1,3,".",3,4,1,3,".",1,".",".","."],[4,".",".",".",".",".",".",4,4,".",4,3,1,1,".",".",".",4,".",".",".",".",".",".",".",4,4,".",4,3,".",1,".",".",".",".",1,".",".",".",".",1,".",".",".",".",4,".",3,4,4],[".",".",".",".",".",".",".",".",".",".",".",".",".",".",3,3,3,".",".",".",".",".",".",".",".",".",".",".",".",".",3,".",".",".",".",".",".",".",".",".",".",".",".",".",".",".",".",".",".",".","."],[".",".",".",".",".",".",".",".",".",".",".",".",".",".",".",".",".",".",".",".",".",".",".",".",".",".",".",".",".",".",".",".",".",".",".",".",".",".",".",".",".",".",".",".",".",".",".",".",".",".","."],[".",".",".",".",".",".",".",".",".",".",".",".",".",".",".",".",".",".",".",".",".",".",".",".",".",".",".",".",".",".",".",".",".",".",".",".",".",".",".",".",".",".",".",".",".",".",".",".",".",".","."],[".",".",".",".",".",".",".",".",".",".",".",".",".",".",".",".",".",".",".",".",".",".",".",".",".",".",".",".",".",".",".",".",".",".",".",".",".",".",".",".",".",".",".",".",".",".",".",".",".",".","."]],[[6,7,4,6,".",6,7,4,6,".",6,7,4,6,2,4,1,2,"."],[".",".",".",".",4,".",".",".",".",4,".",".",".",".",".",".",".",".",4],[".",".",".",".",".",".",".",".",".",".",".",".",".",".",".",".",".",".","."],[".",".",".",".",".",".",".",".",".",".",".",".",".",".",".",".",".",".","."],[".",".",".",".",".",".",".",".",".",".",".",".",".",".",".",".",".",".","."],[".",".",".",".",".",".",".",".",".",".",".",".",".",".",".",".",".",".","."]]],"numberofstrings":6,"notes":["E","B","G","D","A","E","B"],"capo":0,"stringnotes":["E4","B3","G3","D3","A2","E2"],"comments":["Stave 1:","Stave 2:","Stave 3:","Stave 4:","Stave 5:","Stave 6:"],"timing":[["W","W","W","W","W","W","W","W","W","W","W","W","W","W","W","W","W","W","W","W","W","W","W","W","W","W","W","W","W","W","W","W","W","W","W","W","W","W","W","W","W","W","W","W","W","W","W","W","W","W","W"],["W","W","W","W","W","W","W","W","W","W","W","W","W","W","W","W","W","W","W","W","W","W","W","W","W","W","W","W","W","W","W","W","W","W","W","W","W","W","W","W","W","W","W","W","W","W","W","W","W","W","W"],["W","W","W","W","W","W","W","W","W","W","W","W","W","W","W","W","W","W","W","W","W","W","W","W","W","W","W","W","W","W","W","W","W","W","W","W","W","W","W","W","W","W","W","W","W","W","W","W","W","W","W"],["W","W","W","W","W","W","W","W","W","W","W","W","W","W","W","W","W","W","W","W","W","W","W","W","W","W","W","W","W","W","W","W","W","W","W","W","W","W","W","W","W","W","W","W","W","W","W","W","W","W","W"],["W","W","W","W","W","W","W","W","W","W","W","W","W","W","W","W","W","W","W","W","W","W","W","W","W","W","W","W","W","W","W","W","W","W","W","W","W","W","W","W","W","W","W","W","W","W","W","W","W","W","W"],["W","W","W","W","W","W","W","W","W","W","W","W","W","W","W","W","W","W","W"]],"timingvisible":false,"tabcounter":19,"stave":5,"totalstaves":6,"instrument":"6guitar","selectedtuning":"6_standard","version":"13"}

Member for

1 month 1 week
Submitted by ElitheElien on Sat, 2020-10-24 22:52