Sound will begin in 5 seconds

Und

01234567891011121314151617181920212223
E
B
G
D
A
E
B
0 1 2 3 4 5 6 7 8 9 10 11 12 13 14 15 16 17 18 19 20 21 22 23
Song Science #1: How Pros Use 6 Chords to Write Hit Songs
(/) Slide Up  (\) Slide Down  (h) Hammer On  (p) Pull Off  (b) Bend (r) Release (v) Vibrato

(W|WW) Whole (H|HH) Half (Q|QQ) Quarter (E|EE) 8th (S|SS) 16th (T|TT) 32nd (X|XX) 64th

Stave 1:
t: EE EE EE QQ QQ EE EE QQ EE EE EE EE EE EE QQ EE EE EE EE E EE QQ EE
E|--------------11--------------10-------------------------------------------------------------
B|----------13------13--12--13------13---------------------------------------------------------
G|------12------------------------------12------------------11--12-----------------------------
D|--10--------------------------------------13--10--12--13----------13--10------9--10--12--10--
A|--------------------------------------------------------------------------10-----------------
E|---------------------------------------------------------------------------------------------

Stave 2:
t: EE EE EE QQ QQ EE EE QQ EE EE EE EE EE EE QQ EE EE EE EE EE EE TT TT TT TT SS
E|--------------11/18--17--15--17--18--15---------------------------------------------------------------
B|----------13-----------------------------16------------------16---------------------------------------
G|------12-------------------------------------17--16--17--19------17----------16--14--16h17h16h17--17--
D|--10-----------------------------------------------------------------17-------------------------------
A|-------------------------------------------------------------------------18---------------------------
E|------------------------------------------------------------------------------------------------------

http://www.guitartabcreator.com
Guitar Tab Creator is intended to store guitar tab created through the tool. It currently does not support in-line text editing. Any text you place in here will be lost. If you need to comment on your tab, please use the "Tab Notes" section located below.