Attention

Chords

01234567891011121314151617181920212223
E
B
G
D
A
E
B
0 1 2 3 4 5 6 7 8 9 10 11 12 13 14 15 16 17 18 19 20 21 22 23
(/) Slide Up  (\) Slide Down  (h) Hammer On  (p) Pull Off  (b) Bend (r) Release (v) Vibrato

Capo Fret 1

(W|WW) Whole  (H|HH) Half  (Q|QQ) Quarter  (E|EE) 8th (S|SS) 16th  (T|TT) 32nd (X|XX) 64th

Stave 1:
t:  E  E  E  E  E  E  E  E     E  E  E  E  Q  E E     E  E  E  E  E  E  E  S S     E  E  E  E  E  E  S  S     S  S  E  S  S  E  S  S  E  S  S  E  
E|--------------1--0--------|--------------0--3/5--|--3--5--------------3--1p1--|--------------3--------------|--------------------------------------
B|--------3-----------3-----|--------1--3----------|--------------5--3--1-------|--3--------1-----------------|--3--3--3--1--1--1--------------------
G|-----2-----2-----------2--|-----0----------------|-----0--5--0-----------0----|--------3--------------------|--------------------2--2--2--0--0--0--
D|--0-----------------------|----------------------|----------------------------|-----3-----------------------|-----------0--------3-----2--0--------
A|--------------------------|--3-------------------|--0-------------------------|--1--------------------0--0--|--------0--------0-----------------0--
C|--------------------------|----------------------|----------------------------|--------------------0--1-----|--2-----------------------------------

Stave 2:
t:  E  S  S  E  E  E  E  E     
E|-----------------------------|--
B|-----------------------------|--
G|--0--------0--2--------------|--
D|--------3--------0-----0--0--|--
A|-----0-----------------------|--
C|-----------------------------|--

							http://www.guitartabcreator.com
genre
Instruments
{"strings":[[[".",".",".",".",1,0,".",".","|",".",".",".",".",0,3,"/",5,"|",3,5,".",".",".",".",3,1,"p",1,"|",".",".",".",".",3,"_",".",".",".","|",".",".",".",".",".",".",".",".",".",".",".","."],[".",".",3,".",".",".",3,".","|",".",".",1,3,".",".",".",".","|",".",".",".",".",5,3,1,".",".",".","|",3,".",".",1,".","_",".",".",".","|",3,3,3,1,1,1,".",".",".",".",".","."],[".",2,".",2,".",".",".",2,"|",".",0,".",".",".",".",".",".","|",".",0,5,0,".",".",".",0,".",".","|",".",".",3,".",".","_",".",".",".","|",".",".",".",".",".",".",2,2,2,0,0,0],[0,".",".",".",".",".",".",".","|",".",".",".",".",".",".",".",".","|",".",".",".",".",".",".",".",".",".",".","|",".",3,".",".",".","_",".",".",".","|",".",".",".",0,".",".",3,".",2,0,".","."],[".",".",".",".",".",".",".",".","|",3,".",".",".",".",".",".",".","|",0,".",".",".",".",".",".",".",".",".","|",1,".",".",".",".","_",".",0,0,"|",".",".",0,".",".",0,".",".",".",".",".",0],[".",".",".",".",".",".",".",".","|",".",".",".",".",".",".",".",".","|",".",".",".",".",".",".",".",".",".",".","|",".",".",".",".",".","_",0,1,".","|",2,".",".",".",".",".",".",".",".",".",".","."]],[[".",".",".",".",".",".","_",".",".","|"],[".",".",".",".",".",".","_",".",".","|"],[0,".",".",0,2,".","_",".",".","|"],[".",".",3,".",".",0,"_",0,0,"|"],[".",0,".",".",".",".","_",".",".","|"],[".",".",".",".",".",".","_",".",".","|"]]],"numberofstrings":6,"notes":["E","B","G","D","A","C","B"],"capo":"1","stringnotes":["E4","B3","G3","D3","A2","C2"],"comments":["Stave 1:","Stave 2:"],"timing":[["E","E","E","E","E","E","E","E","E","E","E","E","E","Q","E","Q","E",null,"E","E","E","E","E","E","E","S","E","S","E","E","E","E","E","E","S","E","S","S","S","S","S","E","S","S","E","S","S","E","S","S","E","E","E","S","S","S"],["E","S","S","E","E","E",null,"E","E"]],"timingvisible":true,"tabcounter":10,"stave":1,"totalstaves":2,"instrument":"6guitar","selectedtuning":"6_standard","version":"13"}

Member for

4 months 4 weeks
Submitted by EliteChicken on Fri, 2020-07-03 12:25