La carretera

Chords

01234567891011121314151617181920212223
E
B
G
D
A
E
B
0 1 2 3 4 5 6 7 8 9 10 11 12 13 14 15 16 17 18 19 20 21 22 23
(/) Slide Up  (\) Slide Down  (h) Hammer On  (p) Pull Off  (b) Bend (r) Release (v) Vibrato

Verso 1 y 2 

E|----------------------------------------------------|----------------------------------------|--------------------------------
B|---------------------------------3--4v--3--3--------|-----3--4--6--3--6--3--6--3--6/8--------|--------3--4---------3----------
G|-----3--5--7v--5--3--2--3--3--5---------------5--5--|--5-------------------------------5--3--|--3--5--------3v--5-----3/5--5--
D|--3-------------------------------------------------|----------------------------------------|--------------------------------
A|----------------------------------------------------|----------------------------------------|--------------------------------
E|----------------------------------------------------|----------------------------------------|--------------------------------

Pre coro

E|--------------------------------------------------------|--|--------------------------
B|--8v--6v---------3--4--3-----6--4--4--3--3--------------|--|--------------4--3--3-----
G|----------5--5v-----------5-----------------5--5--2--3--|--|--7--7--5--3-----------5--
D|--------------------------------------------------------|--|--------------------------
A|--------------------------------------------------------|--|--------------------------
E|--------------------------------------------------------|--|--------------------------

Coro

E|--------------------------------------------------------------|--|------------------------------------------------
B|--3-----------------3--4/8--------3--4/6-----------4----------|--|--------3--4---------3--------------------3-----
G|-----5--3-----3--5----------3--5----------3--3--3-----5/7--5--|--|--3--5--------3v--5-----5--3-----3--3--5-----5--
D|--------------------------------------------------------------|--|------------------------------------------------
A|--------------------------------------------------------------|--|------------------------------------------------
E|--------------------------------------------------------------|--|------------------------------------------------

							http://www.guitartabcreator.com
Instruments
{"strings":[[[".",".",".",".",".",".",".",".",".",".",".",".",".",".",".",".",".",".","|",".",".",".",".",".",".",".",".",".",".",".",".",".",".","|",".",".",".",".",".",".",".",".",".",".",".","."],[".",".",".",".",".",".",".",".",".",".",".",3,4,"v",3,3,".",".","|",".",3,4,6,3,6,3,6,3,6,"/",8,".",".","|",".",".",3,4,".",".",".",3,".",".",".","."],[".",3,5,7,"v",5,3,2,3,3,5,".",".",".",".",".",5,5,"|",5,".",".",".",".",".",".",".",".",".",".",".",5,3,"|",3,5,".",".",3,"v",5,".",3,"/",5,5],[3,".",".",".",".",".",".",".",".",".",".",".",".",".",".",".",".",".","|",".",".",".",".",".",".",".",".",".",".",".",".",".",".","|",".",".",".",".",".",".",".",".",".",".",".","."],[".",".",".",".",".",".",".",".",".",".",".",".",".",".",".",".",".",".","|",".",".",".",".",".",".",".",".",".",".",".",".",".",".","|",".",".",".",".",".",".",".",".",".",".",".","."],[".",".",".",".",".",".",".",".",".",".",".",".",".",".",".",".",".",".","|",".",".",".",".",".",".",".",".",".",".",".",".",".",".","|",".",".",".",".",".",".",".",".",".",".",".","."]],[[".",".",".",".",".",".",".",".",".",".",".",".",".",".",".",".",".",".",".",".","|","|",".",".",".",".",".",".",".","."],[8,"v",6,"v",".",".",".",3,4,3,".",6,4,4,3,3,".",".",".",".","|","|",".",".",".",".",4,3,3,"."],[".",".",".",".",5,5,"v",".",".",".",5,".",".",".",".",".",5,5,2,3,"|","|",7,7,5,3,".",".",".",5],[".",".",".",".",".",".",".",".",".",".",".",".",".",".",".",".",".",".",".",".","|","|",".",".",".",".",".",".",".","."],[".",".",".",".",".",".",".",".",".",".",".",".",".",".",".",".",".",".",".",".","|","|",".",".",".",".",".",".",".","."],[".",".",".",".",".",".",".",".",".",".",".",".",".",".",".",".",".",".",".",".","|","|",".",".",".",".",".",".",".","."]],[[".",".",".","_",".",".",".",".",".",".",".",".",".",".",".",".",".",".",".",".",".",".",".",".","|","|",".",".",".",".",".",".",".",".",".",".","_",".",".",".",".","."],[3,".",".","_",".",".",3,4,"/",8,".",".",3,4,"/",6,".",".",".",4,".",".",".",".","|","|",".",".",3,4,".",".",".",3,".",".","_",".",".",".",3,"."],[".",5,3,"_",3,5,".",".",".",".",3,5,".",".",".",".",3,3,3,".",5,"/",7,5,"|","|",3,5,".",".",3,"v",5,".",5,3,"_",3,3,5,".",5],[".",".",".","_",".",".",".",".",".",".",".",".",".",".",".",".",".",".",".",".",".",".",".",".","|","|",".",".",".",".",".",".",".",".",".",".","_",".",".",".",".","."],[".",".",".","_",".",".",".",".",".",".",".",".",".",".",".",".",".",".",".",".",".",".",".",".","|","|",".",".",".",".",".",".",".",".",".",".","_",".",".",".",".","."],[".",".",".","_",".",".",".",".",".",".",".",".",".",".",".",".",".",".",".",".",".",".",".",".","|","|",".",".",".",".",".",".",".",".",".",".","_",".",".",".",".","."]]],"numberofstrings":6,"notes":["E","B","G","D","A","E","B"],"capo":0,"stringnotes":["E4","B3","G3","D3","A2","E2"],"comments":["Verso 1 y 2 ","Pre coro","Coro"],"timing":[["W","W","W","W","W","W","W","W","W","W","W","W","W",null,"W","W","W","W",null,"W","W","W","W","W","W","W","W","W","W","W","W","W","W",null,"W","W","W","W","W",null,"W","W","W",null,"W","W"],["W",null,"W",null,"W","W",null,"W","W","W","W","W","W","W","W","W","W","W","W","W","W",null,"W","W","W","W","W","W","W","W"],["W","W","W",null,"W","W","W","W",null,"W","W","W","W","W",null,"W","W","W","W","W","W",null,"W","W",null,null,"W","W","W","W","W",null,"W","W","W","W",null,"W","W","W","W","W"]],"timingvisible":false,"tabcounter":42,"stave":2,"totalstaves":3,"instrument":"6guitar","selectedtuning":"6_standard","version":"13"}

Member for

1 week 4 days
Submitted by Elisa Valladares on Fri, 2020-11-20 13:29