Dile al amor

Chords

01234567891011121314151617181920212223
E
B
G
D
A
E
B
0 1 2 3 4 5 6 7 8 9 10 11 12 13 14 15 16 17 18 19 20 21 22 23
(/) Slide Up  (\) Slide Down  (h) Hammer On  (p) Pull Off  (b) Bend (r) Release (v) Vibrato

Capo Fret 2

Stave 1:

E|-----------------------------------------------------
B|-----------------------------------------------------
G|-----------1--2--1-----2/4-----1/2/1-----------------
D|--4--4--4-----------4-------4---------4/6--6/4--4/2--
A|-----------------------------------------------------
E|-----------------------------------------------------

Stave 2:

E|-----------4--5--4-----5/7-----4/5/4-----------------12--
B|--7--7--7-----------7-------7---------7/9--9/7--7/5------
G|---------------------------------------------------------
D|---------------------------------------------------------
A|---------------------------------------------------------
E|---------------------------------------------------------

Stave 3:

E|------------------------------------------------------------------------11/14r
B|--12--11--12--11--12--11--12--11--12--11--12--11--12--11/12/11------12--------
G|----------------------------------------------------------------11------------
D|------------------------------------------------------------------------------
A|------------------------------------------------------------------------------
E|------------------------------------------------------------------------------

Stave 4:

E|------------------------------------------------------------------
B|------------------------------------------------------------------
G|--4/5-----5-----5-----5-----5-----5--5--4--4/5--4--------4--5-----
D|-------7-----7-----7-----7-----7-------------------5--7--------7--
A|------------------------------------------------------------------
E|------------------------------------------------------------------

Stave 5:

E|-----------------------------------------------------------------------
B|------------------------------------------------------------6/5--------
G|--4/5-----5-----5-----5-----5-----5--7--4--4/5--4--4--5--7-------7--5--
D|-------7-----7-----7-----7-----7---------------------------------------
A|-----------------------------------------------------------------------
E|-----------------------------------------------------------------------

Stave 6:

E|--------------------------------------------------------------------------------
B|--------------------------------------------------------------------------------
G|--7/9------9------9------9-----7-----7--9--10--9/10/9/7--7--9--10--10--9/7------
D|-------10-----10-----10-----9-----9-----------------------------------------10--
A|--------------------------------------------------------------------------------
E|--------------------------------------------------------------------------------

Stave 7:

E|-----------------------------------------------------------------------
B|--8/5-----5-----6-----6-----6-----6--5-----5/5--------------6/5--------
G|-------5-----5-----5-----5-----5--------7-------7-----4--5-------7--5--
D|---------------------------------------------------7-------------------
A|-----------------------------------------------------------------------
E|-----------------------------------------------------------------------

							http://www.guitartabcreator.com
Instruments
{"strings":[[[".",".",".",".",".",".",".",".",".",".",".",".",".",".",".",".",".",".",".",".",".",".",".",".","."],[".",".",".",".",".",".",".",".",".",".",".",".",".",".",".",".",".",".",".",".",".",".",".",".","."],[".",".",".",1,2,1,".",2,"/",4,".",1,"/",2,"/",1,".",".",".",".",".",".",".",".","."],[4,4,4,".",".",".",4,".",".",".",4,".",".",".",".",".",4,"/",6,6,"/",4,4,"/",2],[".",".",".",".",".",".",".",".",".",".",".",".",".",".",".",".",".",".",".",".",".",".",".",".","."],[".",".",".",".",".",".",".",".",".",".",".",".",".",".",".",".",".",".",".",".",".",".",".",".","."]],[[".",".",".",4,5,4,".",5,"/",7,".",4,"/",5,"/",4,".",".",".",".",".",".",".",".",".",12],[7,7,7,".",".",".",7,".",".",".",7,".",".",".",".",".",7,"/",9,9,"/",7,7,"/",5,"."],[".",".",".",".",".",".",".",".",".",".",".",".",".",".",".",".",".",".",".",".",".",".",".",".",".","."],[".",".",".",".",".",".",".",".",".",".",".",".",".",".",".",".",".",".",".",".",".",".",".",".",".","."],[".",".",".",".",".",".",".",".",".",".",".",".",".",".",".",".",".",".",".",".",".",".",".",".",".","."],[".",".",".",".",".",".",".",".",".",".",".",".",".",".",".",".",".",".",".",".",".",".",".",".",".","."]],[[".",".",".",".",".",".",".",".",".",".",".",".",".",".",".",".",".",".",".",".",11,"/",14,"r"],[12,11,12,11,12,11,12,11,12,11,12,11,12,11,"/",12,"/",11,".",12,".",".",".","."],[".",".",".",".",".",".",".",".",".",".",".",".",".",".",".",".",".",".",11,".",".",".",".","."],[".",".",".",".",".",".",".",".",".",".",".",".",".",".",".",".",".",".",".",".",".",".",".","."],[".",".",".",".",".",".",".",".",".",".",".",".",".",".",".",".",".",".",".",".",".",".",".","."],[".",".",".",".",".",".",".",".",".",".",".",".",".",".",".",".",".",".",".",".",".",".",".","."]],[[".",".",".",".",".",".",".",".",".",".",".",".",".",".",".",".",".",".",".",".",".",".",".","."],[".",".",".",".",".",".",".",".",".",".",".",".",".",".",".",".",".",".",".",".",".",".",".","."],[4,"/",5,".",5,".",5,".",5,".",5,".",5,5,4,4,"/",5,4,".",".",4,5,"."],[".",".",".",7,".",7,".",7,".",7,".",7,".",".",".",".",".",".",".",5,7,".",".",7],[".",".",".",".",".",".",".",".",".",".",".",".",".",".",".",".",".",".",".",".",".",".",".","."],[".",".",".",".",".",".",".",".",".",".",".",".",".",".",".",".",".",".",".",".",".",".",".","."]],[[".",".",".",".",".",".",".",".",".",".",".",".",".",".",".",".",".",".",".",".",".",".",".",".",".",".","."],[".",".",".",".",".",".",".",".",".",".",".",".",".",".",".",".",".",".",".",".",".",".",6,"/",5,".","."],[4,"/",5,".",5,".",5,".",5,".",5,".",5,7,4,4,"/",5,4,4,5,7,".",".",".",7,5],[".",".",".",7,".",7,".",7,".",7,".",7,".",".",".",".",".",".",".",".",".",".",".",".",".",".","."],[".",".",".",".",".",".",".",".",".",".",".",".",".",".",".",".",".",".",".",".",".",".",".",".",".",".","."],[".",".",".",".",".",".",".",".",".",".",".",".",".",".",".",".",".",".",".",".",".",".",".",".",".",".","."]],[[".",".",".",".",".",".",".",".",".",".",".",".",".",".",".",".",".",".",".",".",".",".",".",".",".",".",".",".",".","."],[".",".",".",".",".",".",".",".",".",".",".",".",".",".",".",".",".",".",".",".",".",".",".",".",".",".",".",".",".","."],[7,"/",9,".",9,".",9,".",9,".",7,".",7,9,10,9,"/",10,"/",9,"/",7,7,9,10,10,9,"/",7,"."],[".",".",".",10,".",10,".",10,".",9,".",9,".",".",".",".",".",".",".",".",".",".",".",".",".",".",".",".",".",10],[".",".",".",".",".",".",".",".",".",".",".",".",".",".",".",".",".",".",".",".",".",".",".",".",".",".",".",".",".","."],[".",".",".",".",".",".",".",".",".",".",".",".",".",".",".",".",".",".",".",".",".",".",".",".",".",".",".",".",".","."]],[[".",".",".",".",".",".",".",".",".",".",".",".",".",".",".",".",".",".",".",".",".",".",".",".",".",".","."],[8,"/",5,".",5,".",6,".",6,".",6,".",6,5,".",5,"/",5,".",".",".",".",6,"/",5,".","."],[".",".",".",5,".",5,".",5,".",5,".",5,".",".",7,".",".",".",7,".",4,5,".",".",".",7,5],[".",".",".",".",".",".",".",".",".",".",".",".",".",".",".",".",".",".",".",7,".",".",".",".",".",".","."],[".",".",".",".",".",".",".",".",".",".",".",".",".",".",".",".",".",".",".",".",".",".",".",".",".",".","."],[".",".",".",".",".",".",".",".",".",".",".",".",".",".",".",".",".",".",".",".",".",".",".",".",".",".","."]]],"numberofstrings":6,"notes":["E","B","G","D","A","E","B"],"capo":"2","stringnotes":["E4","B3","G3","D3","A2","E2"],"comments":["Stave 1:","Stave 2:","Stave 3:","Stave 4:","Stave 5:","Stave 6:","Stave 7:"],"timing":[["W","W","W","W","W","W","W","W",null,"W","W","W",null,"W",null,"W","W",null,"W","W",null,"W","W",null,"W"],["W","W","W","W","W","W","W","W",null,"W","W","W",null,"W",null,"W","W",null,"W","W",null,"W","W",null,"W","W"],["W","W","W","W","W","W","W","W","W","W","W","W","W","W",null,"W",null,"W","W","W","W",null,"W"],["W",null,"W","W","W","W","W","W","W","W","W","W","W","W","W","W",null,"W","W","W","W","W","W","W"],["W",null,"W","W","W","W","W","W","W","W","W","W","W","W","W","W",null,"W","W","W","W","W","W",null,"W","W","W"],["W",null,"W","W","W","W","W","W","W","W","W","W","W","W","W","W",null,"W",null,"W",null,"W","W","W","W","W","W",null,"W","W"],["W",null,"W","W","W","W","W","W","W","W","W","W","W","W","W","W",null,"W","W","W","W","W","W",null,"W","W","W"]],"timingvisible":false,"tabcounter":27,"stave":6,"totalstaves":7,"instrument":"6guitar","selectedtuning":"6_standard","version":"13"}

Member for

6 days 1 hour
Submitted by Elisa Valladares on Fri, 2020-11-20 12:42