Slide (Goo Goo Dolls)

Chords

01234567891011121314151617181920212223
E
B
G
D
A
E
B
0 1 2 3 4 5 6 7 8 9 10 11 12 13 14 15 16 17 18 19 20 21 22 23
(/) Slide Up  (\) Slide Down  (h) Hammer On  (p) Pull Off  (b) Bend (r) Release (v) Vibrato

Slide Intro

E|--------------------------------------------------------
B|--------3-----------3--------------3-----------3--------
G|-----0-----0-----2-----2--------0-----0-----0--------0--
D|--2-----------0-----------0-----------------------------
A|-----------------------------3--------------------------
E|-----------------------------------------3--------2-----

Slide Riff

E|--------------------
B|--------3-----------
G|-----------0-----0--
D|-----4--------4-----
A|--5-----------------
E|--------------------

							http://www.guitartabcreator.com
Instruments
{"strings":[[[".",".",".",".",".",".",".",".",".",".",".",".",".",".",".",".",".","."],[".",".",3,".",".",".",3,".",".",".",".",3,".",".",".",3,".","."],[".",0,".",0,".",2,".",2,".",".",0,".",0,".",0,".",".",0],[2,".",".",".",0,".",".",".",0,".",".",".",".",".",".",".",".","."],[".",".",".",".",".",".",".",".",".",3,".",".",".",".",".",".",".","."],[".",".",".",".",".",".",".",".",".",".",".",".",".",3,".",".",2,"."]],[[".",".",".",".",".","."],[".",".",3,".",".","."],[".",".",".",0,".",0],[".",4,".",".",4,"."],[5,".",".",".",".","."],[".",".",".",".",".","."]]],"numberofstrings":6,"notes":["E","B","G","D","A","E","B"],"capo":0,"stringnotes":["E4","B3","G3","D3","A2","E2"],"comments":["Slide Intro","Slide Riff"],"timing":[["W","W","W","W","W","W","W","W","W","W","W","W","W","W","W","W","W","W"],["W","W","W","W","W","W"]],"timingvisible":false,"tabcounter":6,"stave":1,"totalstaves":2,"instrument":"6guitar","selectedtuning":"6_standard","version":"13"}

Member for

3 years 5 months
Submitted by eletra99 on Tue, 2020-09-15 20:31