Drone n Melody (Call n Response)

Chords

01234567891011121314151617181920212223
E
B
G
D
A
E
B
0 1 2 3 4 5 6 7 8 9 10 11 12 13 14 15 16 17 18 19 20 21 22 23
(/) Slide Up  (\) Slide Down  (h) Hammer On  (p) Pull Off  (b) Bend (r) Release (v) Vibrato

Stave 1:

E|--------------------------
B|-----------3--3--5--7--7--
G|--------------------------
D|--------0-----------------
A|--0--0--------------------
E|--------------------------

Stave 2:

E|--------------------------
B|-----------3--3--5--3--3--
G|--------------------------
D|--------0-----------------
A|--0--0--------------------
E|--------------------------

Stave 3:

E|-----------------------------------
B|-----------7--7--5--3--5--7--7--7--
G|-----------------------------------
D|--------0--------------------------
A|--0--0-----------------------------
E|-----------------------------------

Stave 4:

E|-----------------------------------
B|-----------3--3--5--5--7--5--5--5--
G|-----------------------------------
D|--------0--------------------------
A|--0--0-----------------------------
E|-----------------------------------

Stave 5:

E|--------------------------5--5--5--
B|-----------3--3--5--5--7-----------
G|-----------------------------------
D|--------0--------------------------
A|--0--0-----------------------------
E|-----------------------------------

Stave 6:

E|-----------------5--5--------------
B|-----------5--7--------7--5--3--3--
G|-----------------------------------
D|--------0--------------------------
A|--0--0-----------------------------
E|-----------------------------------

Stave 7:

E|-----------------------------------------------------
B|-----------5--7--5--7--5--7--5--7--5--7--7--5--3--3--
G|-----------------------------------------------------
D|--------0--------------------------------------------
A|--0--0-----------------------------------------------
E|-----------------------------------------------------

Stave 8:

E|-----------5--7--5-----5--7--5-----
B|--------------------7-----------7--
G|-----------------------------------
D|--------0--------------------------
A|--0--0-----------------------------
E|-----------------------------------

Stave 9:

E|-----------7--5--7-----------
B|--------------------5--5--3--
G|-----------------------------
D|--------0--------------------
A|--0--0-----------------------
E|-----------------------------

							http://www.guitartabcreator.com
Instruments
{"strings":[[[".",".",".",".",".",".",".","."],[".",".",".",3,3,5,7,7],[".",".",".",".",".",".",".","."],[".",".",0,".",".",".",".","."],[0,0,".",".",".",".",".","."],[".",".",".",".",".",".",".","."]],[[".",".",".",".",".",".",".","."],[".",".",".",3,3,5,3,3],[".",".",".",".",".",".",".","."],[".",".",0,".",".",".",".","."],[0,0,".",".",".",".",".","."],[".",".",".",".",".",".",".","."]],[[".",".",".",".",".",".",".",".",".",".","."],[".",".",".",7,7,5,3,5,7,7,7],[".",".",".",".",".",".",".",".",".",".","."],[".",".",0,".",".",".",".",".",".",".","."],[0,0,".",".",".",".",".",".",".",".","."],[".",".",".",".",".",".",".",".",".",".","."]],[[".",".",".",".",".",".",".",".",".",".","."],[".",".",".",3,3,5,5,7,5,5,5],[".",".",".",".",".",".",".",".",".",".","."],[".",".",0,".",".",".",".",".",".",".","."],[0,0,".",".",".",".",".",".",".",".","."],[".",".",".",".",".",".",".",".",".",".","."]],[[".",".",".",".",".",".",".",".",5,5,5],[".",".",".",3,3,5,5,7,".",".","."],[".",".",".",".",".",".",".",".",".",".","."],[".",".",0,".",".",".",".",".",".",".","."],[0,0,".",".",".",".",".",".",".",".","."],[".",".",".",".",".",".",".",".",".",".","."]],[[".",".",".",".",".",5,5,".",".",".","."],[".",".",".",5,7,".",".",7,5,3,3],[".",".",".",".",".",".",".",".",".",".","."],[".",".",0,".",".",".",".",".",".",".","."],[0,0,".",".",".",".",".",".",".",".","."],[".",".",".",".",".",".",".",".",".",".","."]],[[".",".",".",".",".",".",".",".",".",".",".",".",".",".",".",".","."],[".",".",".",5,7,5,7,5,7,5,7,5,7,7,5,3,3],[".",".",".",".",".",".",".",".",".",".",".",".",".",".",".",".","."],[".",".",0,".",".",".",".",".",".",".",".",".",".",".",".",".","."],[0,0,".",".",".",".",".",".",".",".",".",".",".",".",".",".","."],[".",".",".",".",".",".",".",".",".",".",".",".",".",".",".",".","."]],[[".",".",".",5,7,5,".",5,7,5,"."],[".",".",".",".",".",".",7,".",".",".",7],[".",".",".",".",".",".",".",".",".",".","."],[".",".",0,".",".",".",".",".",".",".","."],[0,0,".",".",".",".",".",".",".",".","."],[".",".",".",".",".",".",".",".",".",".","."]],[[".",".",".",7,5,7,".",".","."],[".",".",".",".",".",".",5,5,3],[".",".",".",".",".",".",".",".","."],[".",".",0,".",".",".",".",".","."],[0,0,".",".",".",".",".",".","."],[".",".",".",".",".",".",".",".","."]]],"numberofstrings":6,"notes":["E","B","G","D","A","E","B"],"capo":0,"stringnotes":["E4","B3","G3","D3","A2","E2"],"comments":["Stave 1:","Stave 2:","Stave 3:","Stave 4:","Stave 5:","Stave 6:","Stave 7:","Stave 8:","Stave 9:"],"timing":[["W","W","W","W","W","W","W","W"],["W","W","W","W","W","W","W","W"],["W","W","W","W","W","W","W","W","W","W","W"],["W","W","W","W","W","W","W","W","W","W","W"],["W","W","W","W","W","W","W","W","W","W","W"],["W","W","W","W","W","W","W","W","W","W","W"],["W","W","W","W","W","W","W","W","W","W","W","W","W","W","W","W","W"],["W","W","W","W","W","W","W","W","W","W","W"],["W","W","W","W","W","W","W","W","W"]],"timingvisible":false,"tabcounter":9,"stave":8,"totalstaves":9,"instrument":"6guitar","selectedtuning":"6_standard","version":"13"}

Member for

3 years 4 months
Submitted by eletra99 on Wed, 2020-07-29 13:11