Up Around the Bend Melody #1

Chords

01234567891011121314151617181920212223
E
B
G
D
A
E
B
0 1 2 3 4 5 6 7 8 9 10 11 12 13 14 15 16 17 18 19 20 21 22 23
(/) Slide Up  (\) Slide Down  (h) Hammer On  (p) Pull Off  (b) Bend (r) Release (v) Vibrato

Stave 1:

E|------------10------------------------10--------------
B|----------------10------10----------------10------10--
G|-----9--11----------11---------9--11----------11------
D|--0-------------------------0-------------------------
A|------------------------------------------------------
E|------------------------------------------------------

Stave 2:

E|-----------5---------------------10--------------
B|--------------5-----5----------------10------10--
G|-----4--6--------6--------9--11----------11------
D|-----------------------0-------------------------
A|--0----------------------------------------------
E|-------------------------------------------------

							http://www.guitartabcreator.com
Instruments
{"strings":[[[".",".",".",10,".",".",".",".",".",".",10,".",".","."],[".",".",".",".",10,".",10,".",".",".",".",10,".",10],[".",9,11,".",".",11,".",".",9,11,".",".",11,"."],[0,".",".",".",".",".",".",0,".",".",".",".",".","."],[".",".",".",".",".",".",".",".",".",".",".",".",".","."],[".",".",".",".",".",".",".",".",".",".",".",".",".","."]],[[".",".",".",5,".",".",".",".",".",".",10,".",".","."],[".",".",".",".",5,".",5,".",".",".",".",10,".",10],[".",4,6,".",".",6,".",".",9,11,".",".",11,"."],[".",".",".",".",".",".",".",0,".",".",".",".",".","."],[0,".",".",".",".",".",".",".",".",".",".",".",".","."],[".",".",".",".",".",".",".",".",".",".",".",".",".","."]]],"numberofstrings":6,"notes":["E","B","G","D","A","E","B"],"capo":0,"stringnotes":["E4","B3","G3","D3","A2","E2"],"comments":["Stave 1:","Stave 2:"],"timing":[["W","W","W","W","W","W","W","W","W","W","W","W","W","W"],["W","W","W","W","W","W","W","W","W","W","W","W","W","W"]],"timingvisible":false,"tabcounter":14,"stave":1,"totalstaves":2,"instrument":"6guitar","selectedtuning":"6_standard","version":"13"}

Member for

3 years 3 months
Submitted by eletra99 on Wed, 2020-07-29 13:46