Sound will begin in 5 seconds

Triple Baka Teto 1

01234567891011121314151617181920212223
E
B
G
D
A
E
B
0 1 2 3 4 5 6 7 8 9 10 11 12 13 14 15 16 17 18 19 20 21 22 23
(/) Slide Up  (\) Slide Down  (h) Hammer On  (p) Pull Off  (b) Bend (r) Release (v) Vibrato

Stave 1:

E|---------------|--------------|--------------|-----------------|--
B|---------------|--------------|--------------|-----------------|--
G|---------------|--------------|--------------|--0--2--0--------|--
D|---------------|--5--4--0--2--|--------------|-----------2--4--|--
A|--5--3--5r3r2--|--------------|--------------|-----------------|--
E|---------------|--------------|--3--2--0--3--|-----------------|--

Stave 2:

E|--------------------|--------------|--
B|--------------------|--------------|--
G|--------------4-----|--------------|--
D|--4--5--5--5-----5--|--0--2-----0--|--
A|--------------------|--------2-----|--
E|--------------------|--------------|--

Stave 3:

E|--3--------------0--------|--
B|-----3--------0-----1--3--|--
G|--------0-----------------|--
D|-----------0--------------|--
A|--------------------------|--
E|--------------------------|--

Stave 4:

E|---------------|--------------------------
B|---------------|--------------------------
G|---------------|--------------------------
D|---------------|--------------------------
A|--5--3--5r3r2--|--2--3--2--0-----2--0--3--
E|---------------|--------------3-----------

Stave 5:

E|---------------|--3--2--------|--------------|--
B|---------------|--------3--5--|--------------|--
G|--7--5--7r5r4--|--------------|--------------|--
D|---------------|--------------|--5--4--2--5--|--
A|---------------|--------------|--------------|--
E|---------------|--------------|--------------|--

Stave 6:

E|-----------------------
B|-----------------------
G|--4--5--4--0--4--2--5--
D|-----------------------
A|-----------------------
E|-----------------------

http://www.guitartabcreator.com
Guitar Tab Creator is intended to store guitar tab created through the tool. It currently does not support in-line text editing. Any text you place in here will be lost. If you need to comment on your tab, please use the "Tab Notes" section located below.