Sound will begin in 5 seconds

Triple Baka Miku 2

01234567891011121314151617181920212223
E
B
G
D
A
E
B
0 1 2 3 4 5 6 7 8 9 10 11 12 13 14 15 16 17 18 19 20 21 22 23
(/) Slide Up  (\) Slide Down  (h) Hammer On  (p) Pull Off  (b) Bend (r) Release (v) Vibrato

Stave 1:

E|-----------------------------------------------|----------------------------|--
B|-----------------------------------------------|----------------------------|--
G|-----------------------------------------------|----------------------------|--
D|--5--5--5--5--5--5--5--4--4--5--7--4--4--5--5--|--2--0----------------------|--
A|-----------------------------------------------|--------3--2--0--2--3--3/5--|--
E|-----------------------------------------------|----------------------------|--

Stave 2:

E|-----------|-----------------|--
B|-----------|-----------------|--
G|-----------|-----5--4--4-----|--
D|-----5--4--|--5-----------5--|--
A|--2--------|-----------------|--
E|-----------|-----------------|--

Stave 3:

E|--------------------------------------------------|--------------------------|--
B|--------------------------------------------------|--------------------------|--
G|--5--5--5--5--5--5--5--4--4--4--4--7--4--4--5--5--|--------------------------|--
D|--------------------------------------------------|--2--0--------------------|--
A|--------------------------------------------------|--------3--2--0--2--3--2--|--
E|--------------------------------------------------|--------------------------|--

Stave 4:

E|--0-----------------------|-----------------|--------------------|-----------------|--
B|-----2-----------4-----3--|-----------------|--------------------|-----------------|--
G|--------3--1--1-----2-----|-----------------|--------------------|-----------------|--
D|--------------------------|--5--5--5--7--5--|--4--5--4-----4-----|--7--7--7--9--7--|--
A|--------------------------|-----------------|-----------7-----5--|-----------------|--
E|--------------------------|-----------------|--------------------|-----------------|--

Stave 5:

E|---------------------|---------------------------------------|--
B|---------------------|---------------------------------------|--
G|---------------------|---------------------------------------|--
D|--6--7---------------|--8--8--8--10--8--7--8-----------------|--
A|--------9--7--9------|------------------------10--9--10------|--
E|-----------------10--|-----------------------------------11--|--

Stave 6:

E|------------------------------|--------------------|-----------------------------------|--
B|------------------------------|--5--3--5--3--5--3--|-----------------------------------|--
G|------------------------------|--------------------|--4--2--------------------------4--|--
D|--9--9--9--10--9----------12--|--------------------|--------4--0--0--2--4--5--4--5-----|--
A|------------------12--10------|--------------------|-----------------------------------|--
E|------------------------------|--------------------|-----------------------------------|--

Stave 7:

E|---------------|--------------------------------------|-----------------|--
B|---------------|-----------------3--------------------|-----------------|--
G|---------------|-----4--2--4--5-----2--0--------------|--4--5--4--------|--
D|--2--4--5r4r0--|--2-----------------------4--4--2--2--|-----------5--7--|--
A|---------------|--------------------------------------|-----------------|--
E|---------------|--------------------------------------|-----------------|--

Stave 8:

E|-----------------------|--------------3--|--
B|-----------------3--1--|--1--1--1--3-----|--
G|--3--3--3--3--3--------|-----------------|--
D|-----------------------|-----------------|--
A|-----------------------|-----------------|--
E|-----------------------|-----------------|--

http://www.guitartabcreator.com
Guitar Tab Creator is intended to store guitar tab created through the tool. It currently does not support in-line text editing. Any text you place in here will be lost. If you need to comment on your tab, please use the "Tab Notes" section located below.