Marks

01234567891011121314151617181920212223
E
B
G
D
A
E
B
0 1 2 3 4 5 6 7 8 9 10 11 12 13 14 15 16 17 18 19 20 21 22 23
(/) Slide Up  (\) Slide Down  (h) Hammer On  (p) Pull Off  (b) Bend (r) Release (v) Vibrato

Stave 1:

E|----------------------0----------------------------------0--------------
B|--0--------0h1-----------------1--0-------------0-----------------------
G|--0-----0-------0-----0-----0--0--0--0h1--------1--------1--------1--4--
D|-----2-------------2-----2-----------2-------2--------2--------2--2--5--
A|--3---------------------------------------2--------2--------2-----------
E|------------------------------------------------------------------------

Stave 2:

E|-------------0-----------------0------------------------------------------------------
B|--0h1--------1--------1--------1--0h1p0-----------------1-----------------------------
G|--2-------2-----2-----2-----2------------2-----2--------2--------2--------2--0--0-----
D|-------2-----------2-----2------------------2--3-----3-----3-----3-----3--3--2--0--2--
A|--------------------------------------------------3-----------3-----3--------------3--
E|--------------------------------------------------------------------------------------

Stave 3:

E|--------------------------------------------------------------------------------
B|-----------1--------1--------1--------------------0--------0--------0-----------
G|-----0--------0--------0--------0-----0-----1--------1--------1--------1-----1--
D|--------------------------------------------------------------------------------
A|--3-----3--------3--------3--------3-----2-----2--------2--------2--------2-----
E|--------------------------------------------------------------------------------

Stave 4:

E|-----------3--------3--------3--------------------------------------------------
B|-----2--------2--------2--------2-----2-----------1--------1--------1-----------
G|--------------------------------------------2--------2--------2--------2-----2--
D|--0-----0--------0--------0--------0--------------------------------------------
A|-----------------------------------------0-----0--------0--------0--------0-----
E|--------------------------------------------------------------------------------

							http://www.guitartabcreator.com
Chords

Instruments
{"strings":[[[".",".",".",".",".",".",".",".",0,".",".",".",".",".",".",".",".",".",".",".",".",0,".",".",".","."],[0,".",".",0,"h",1,".",".",".",".",".",1,0,".",".",".",".",".",0,".",".",".",".",".",".","."],[0,".",0,".",".",".",0,".",0,".",0,0,0,0,"h",1,".",".",1,".",".",1,".",".",1,4],[".",2,".",".",".",".",".",2,".",2,".",".",".",2,".",".",".",2,".",".",2,".",".",2,2,5],[3,".",".",".",".",".",".",".",".",".",".",".",".",".",".",".",2,".",".",2,".",".",2,".",".","."],[".",".",".",".",".",".",".",".",".",".",".",".",".",".",".",".",".",".",".",".",".",".",".",".",".","."]],[[".",".",".",".",".",0,".",".",".",".",".",0,".",".",".",".",".",".",".",".",".",".",".",".",".",".",".",".",".",".",".","."],[0,"h",1,".",".",1,".",".",1,".",".",1,0,"h",1,"p",0,".",".",".",".",".",1,".",".",".",".",".",".",".",".","."],[2,".",".",".",2,".",2,".",2,".",2,".",".",".",".",".",".",2,".",2,".",".",2,".",".",2,".",".",2,0,0,"."],[".",".",".",2,".",".",".",2,".",2,".",".",".",".",".",".",".",".",2,3,".",3,".",3,".",3,".",3,3,2,0,2],[".",".",".",".",".",".",".",".",".",".",".",".",".",".",".",".",".",".",".",".",3,".",".",".",3,".",3,".",".",".",".",3],[".",".",".",".",".",".",".",".",".",".",".",".",".",".",".",".",".",".",".",".",".",".",".",".",".",".",".",".",".",".",".","."]],[[".",".",".",".",".",".",".",".",".",".",".",".",".",".",".",".",".",".",".",".",".",".",".",".",".","."],[".",".",".",1,".",".",1,".",".",1,".",".",".",".",".",".",0,".",".",0,".",".",0,".",".","."],[".",0,".",".",0,".",".",0,".",".",0,".",0,".",1,".",".",1,".",".",1,".",".",1,".",1],[".",".",".",".",".",".",".",".",".",".",".",".",".",".",".",".",".",".",".",".",".",".",".",".",".","."],[3,".",3,".",".",3,".",".",3,".",".",3,".",2,".",2,".",".",2,".",".",2,".",".",2,"."],[".",".",".",".",".",".",".",".",".",".",".",".",".",".",".",".",".",".",".",".",".",".",".",".",".","."]],[[".",".",".",3,".",".",3,".",".",3,".",".",".",".",".",".",".",".",".",".",".",".",".",".",".","."],[".",2,".",".",2,".",".",2,".",".",2,".",2,".",".",".",1,".",".",1,".",".",1,".",".","."],[".",".",".",".",".",".",".",".",".",".",".",".",".",".",2,".",".",2,".",".",2,".",".",2,".",2],[0,".",0,".",".",0,".",".",0,".",".",0,".",".",".",".",".",".",".",".",".",".",".",".",".","."],[".",".",".",".",".",".",".",".",".",".",".",".",".",0,".",0,".",".",0,".",".",0,".",".",0,"."],[".",".",".",".",".",".",".",".",".",".",".",".",".",".",".",".",".",".",".",".",".",".",".",".",".","."]]],"numberofstrings":6,"notes":["E","B","G","D","A","E","B"],"capo":0,"stringnotes":["E4","B3","G3","D3","A2","E2"],"comments":["Stave 1:","Stave 2:","Stave 3:","Stave 4:"],"timing":[["W","W","W","W",null,"W","W","W","W","W","W","W","W","W",null,"W","W","W","W","W","W","W","W","W","W","W","W",null,"W","W","W","W","W","W","W","W","W","W","W",null,"W",null,"W","W","W","W","W","W","W","W","W"],["W",null,"W","W","W","W","W","W","W","W","W","W","W",null,"W",null,"W","W","W","W","W","W","W","W","W","W","W","W","W","W","W","W"],["W","W","W","W","W","W","W","W","W","W","W","W","W","W","W","W","W","W","W","W","W","W","W","W","W","W"],["W","W","W","W","W","W","W","W","W","W","W","W","W","W","W","W","W","W","W","W","W","W","W","W","W","W"]],"timingvisible":false,"tabcounter":26,"stave":3,"totalstaves":4,"instrument":"6guitar","selectedtuning":"6_standard","version":"13"}

Member for

1 month 2 weeks
Submitted by ejohn94 on Fri, 2021-03-05 22:00