Sound will begin in 5 seconds

You Have Won Me - A - Intro & Instrumental

Chords
01234567891011121314151617181920212223
E
B
G
D
A
E
B
0 1 2 3 4 5 6 7 8 9 10 11 12 13 14 15 16 17 18 19 20 21 22 23
Song Science #1: How Pros Use 6 Chords to Write Hit Songs
(/) Slide Up  (\) Slide Down  (h) Hammer On  (p) Pull Off  (b) Bend (r) Release (v) Vibrato

Stave 1:

E|---0---0------------------0---0-----4h5------0---0---------------0---0-----4-5-
B|-3---2---0---0-2-0------3---2---0---5------3---2---0---0-2-0---3---2---0---5-5-
G|-----------2-------2--------------2------------------2-------2-----------2-----
D|-------------------------------------------------------------------------------
A|-------------------------------------------------------------------------------
E|-------------------------------------------------------------------------------

Stave 2:

E|---0---0---------------0---0---5-9--------12----12----------------------12----12-------16b17r16-
B|-3---2---0---0-2-0---3---2---0-5-10----15----14----12----12-14-12----15----14----12-------------
G|-----------2-------2----------------------------------14----------14----------------14----------
D|------------------------------------------------------------------------------------------------
A|------------------------------------------------------------------------------------------------
E|------------------------------------------------------------------------------------------------

Stave 3:

E|-2-0-0-0-0--------------2-0-0-0-0--------------2-0-0-0-0--------------2-0-0-0-0-----------
B|-3-0-2-0-0---0-2-0------3-0-2-0-0---0-2-0------3-0-2-0-0---0-2-0------3-0-2-0-0---0-2-0---
G|-2---2---1-2-------2----2---2---1-2-------2----2---2---1-2-------2----2---2---1-2-------2-
D|------------------------------------------------------------------------------------------
A|------------------------------------------------------------------------------------------
E|------------------------------------------------------------------------------------------

http://www.guitartabcreator.com
Guitar Tab Creator is intended to store guitar tab created through the tool. It currently does not support in-line text editing. Any text you place in here will be lost. If you need to comment on your tab, please use the "Tab Notes" section located below.