Sound will begin in 5 seconds

Whom Shall I Fear - The God of Angel Armies

01234567891011121314151617181920212223
E
B
G
D
A
E
B
0 1 2 3 4 5 6 7 8 9 10 11 12 13 14 15 16 17 18 19 20 21 22 23
Song Science #1: How Pros Use 6 Chords to Write Hit Songs
(/) Slide Up  (\) Slide Down  (h) Hammer On  (p) Pull Off  (b) Bend (r) Release (v) Vibrato

Stave 1:

E|-------------------------------------9-------------------------------------------------------|-
B|-------7---7-------7---7-------7---7---7-------------7---7-------7---7-----7---7-------------|-
G|---9-----9-----9-----9-----9-----9---------------9-----9-----9-----9-----9---9---------------|-
D|-9---9-------9---9-------9---9-----------------9---9-------9---9-------9---------8h9p8-6-4---|-
A|---------------------------------------------------------------------------------------------|-
E|-------------------------------------------------------------------------------------------7-|-

Stave 2:

E|-----6-7-----6-7-----6-7-----6-7-----|-
B|-7-7-----7-7-----7-7-----7-7-----4-5-|-
G|-------------------------------------|-
D|-------------------------------------|-
A|-------------------------------------|-
E|-------------------------------------|-

Stave 3:

E|---------7---------6---------------------------------------------|-
B|-7-----7---7-----------------7-----------7---------5-----------7-|-
G|---6h8-------8-6h8---9-8-6h8---9-8-8-6h8---9-4-3h4---4-4-3h4-4---|-
D|-----------------------------------------------------------------|-
A|-----------------------------------------------------------------|-
E|-----------------------------------------------------------------|-

Stave 4:

E|-7-7-7-7-7-7-9-11-9-7----7-7-7-7-7-7-9-11-9-7----7-7-7-7-7-7-9-11-9-7----7-7-7-7-7-7-9-11-9-7-|-
B|----------------------------------------------------------------------------------------------|-
G|----------------------------------------------------------------------------------------------|-
D|----------------------------------------------------------------------------------------------|-
A|----------------------------------------------------------------------------------------------|-
E|----------------------------------------------------------------------------------------------|-

Stave 5:

E|-------------9-11-9-7----------------9-11-9-7----------------9-11-9-7----9-9-9-9-7-7-6-6-|-
B|-7-7-7-7-7-7-------------7-7-7-7-7-7-------------7-7-7-7-7-7-----------------------------|-
G|-----------------------------------------------------------------------------------------|-
D|-----------------------------------------------------------------------------------------|-
A|-----------------------------------------------------------------------------------------|-
E|-----------------------------------------------------------------------------------------|-

Stave 6:

E|-
B|-
G|-
D|-
A|-
E|-

http://www.guitartabcreator.com
Guitar Tab Creator is intended to store guitar tab created through the tool. It currently does not support in-line text editing. Any text you place in here will be lost. If you need to comment on your tab, please use the "Tab Notes" section located below.