Sound will begin in 5 seconds

Revelation Song - D - Jennie Riddle

01234567891011121314151617181920212223
E
B
G
D
A
E
B
0 1 2 3 4 5 6 7 8 9 10 11 12 13 14 15 16 17 18 19 20 21 22 23
Song Science #1: How Pros Use 6 Chords to Write Hit Songs
(/) Slide Up  (\) Slide Down  (h) Hammer On  (p) Pull Off  (b) Bend (r) Release (v) Vibrato

Stave 1:

E|----------------------------------------------|-
B|----------------------------------------------|-
G|-11-11b12r11-9-------9-9b11r9-7-------7/11----|-
D|----------------------------------------------|-
A|----------------------------------------------|-
E|----------------------------------------------|-

Stave 2:

E|-14----14b15r14-12----12-12h14p12\10h12-12h14p12\10h12-|-
B|-------------------------------------------------------|-
G|-------------------------------------------------------|-
D|-------------------------------------------------------|-
A|-------------------------------------------------------|-
E|-------------------------------------------------------|-

Stave 3:

E|-12b14r12-10----10-10-------------------------------------------------------14-|-
B|----------------------13-13-12h13p12-10h12r10----------------------------------|-
G|----------------------------------------------12----11b12r11b12r11b12r11-------|-
D|-------------------------------------------------------------------------------|-
A|-------------------------------------------------------------------------------|-
E|-------------------------------------------------------------------------------|-

Stave 4:

E|-------------------------------------12h14-|-------------|-
B|----------------------------12h13h15-------|-------------|-
G|-------------------11h12h14----------------|-------------|-
D|----------10h12h14-------------------------|-7-9-9-10----|-
A|-10h12h14----------------------------------|-------------|-
E|-------------------------------------------|-------------|-

Stave 5:

E|-------------------------------------12h14h15/17-22-20-19-17-15-15----20-20-19-17-15-14-12-
B|----------------------------12h13h15-------------------------------------------------------
G|----------11h12h14-11h12h14----------------------------------------------------------------
D|-10h12h14----------------------------------------------------------------------------------
A|-------------------------------------------------------------------------------------------
E|-------------------------------------------------------------------------------------------

Stave 6:

E|----------12-------------12----|-22-20-19----17-15-15----15-15-14-14-12\10-------------|-
B|-12h13h15----15-12h13h15----15-|-------------------------------------------13p12p10----|-
G|-------------------------------|----------------------------------------------------12-|-
D|-------------------------------|-------------------------------------------------------|-
A|-------------------------------|-------------------------------------------------------|-
E|-------------------------------|-------------------------------------------------------|-

http://www.guitartabcreator.com
Guitar Tab Creator is intended to store guitar tab created through the tool. It currently does not support in-line text editing. Any text you place in here will be lost. If you need to comment on your tab, please use the "Tab Notes" section located below.