Sound will begin in 5 seconds

Man of Sorrows (D) Bass Guitar

01234567891011121314151617181920212223
E
B
G
D
A
E
B
0 1 2 3 4 5 6 7 8 9 10 11 12 13 14 15 16 17 18 19 20 21 22 23
Song Science #1: How Pros Use 6 Chords to Write Hit Songs
(/) Slide Up  (\) Slide Down  (h) Hammer On  (p) Pull Off  (b) Bend (r) Release (v) Vibrato

(W|WW) Whole (H|HH) Half (Q|QQ) Quarter (E|EE) 8th (S|SS) 16th (T|TT) 32nd (X|XX) 64th

Stave 1:
t:
E|-----------------------------
B|-----------------------------
G|-----5-----5-----5-----5-----
D|-----------------------------
A|--3-----3-----3-----3--------
E|-----------------------------

Stave 2:
t:
E|--------------------------------------------
B|--------------------------------------------
G|-----5-----5-----------5-----------------5--
D|-----------------3-----------3-----5--------
A|--3-----3-----------3-----------------3-----
E|--------------1-----------1-----3-----------

Stave 3:
t:
E|--------------------------------------------------------------
B|--------------------------------------------------------------
G|-----4-----------7-----------4--------------------------------
D|-----------5-----------7-----------5-----7-----7--------------
A|--2-----------5-----------2-----------------------------------
E|--------3-----------5-----------3-----5-----5-----------------

Stave 4:
t:
E|--------------------------------------------------------------
B|--------------------------------------------------------------
G|-----------7-----------------------------7-----7-----7-----7--
D|-----5-----------7-----9-----5-----7--------------------------
A|--------5-----------------------------5-----5-----5-----5-----
E|--3-----------5-----7-----3-----5-----------------------------

http://www.guitartabcreator.com
Guitar Tab Creator is intended to store guitar tab created through the tool. It currently does not support in-line text editing. Any text you place in here will be lost. If you need to comment on your tab, please use the "Tab Notes" section located below.