Sound will begin in 5 seconds

Live to Praise You - D

Chords
01234567891011121314151617181920212223
E
B
G
D
A
E
B
0 1 2 3 4 5 6 7 8 9 10 11 12 13 14 15 16 17 18 19 20 21 22 23
Song Science #1: How Pros Use 6 Chords to Write Hit Songs
(/) Slide Up  (\) Slide Down  (h) Hammer On  (p) Pull Off  (b) Bend (r) Release (v) Vibrato

Stave 1:

E|--------------------------|--------------------------|-------------------------------------|-
B|-7-7-7-7-7----7-7-7-7h9---|-7-7-7-7-7----7-7-7-7h9---|-7-7-7-7-7----7-7-7-7h9--------------|-
G|-9-9-9-9-9----9-9-9-9---9-|-9-9-9-9-9----9-9-9-9---9-|-9-9-9-9-9----9-9-9-9---9-9v-v-v-v-v-|-
D|--------------------------|--------------------------|-------------------------------------|-
A|--------------------------|--------------------------|-------------------------------------|-
E|--------------------------|--------------------------|-------------------------------------|-

Stave 2:

E|-------------------|-------------------|----------------------|-
B|-------------------|-------------------|----------------------|-
G|-8h9-9-9-9-8-8h9-9-|-8h9-9-9-9-8-8h9-9-|-8h9-9-9-9-8-8h9-9-9v-|-
D|-9---9-9-9-9-9---9-|-9---9-9-9-9-9---9-|-9---9-9-9-9-9---9----|-
A|-------------------|-------------------|----------------------|-
E|-------------------|-------------------|----------------------|-

Stave 3:

E|----14-14-14-14/16-12----12----9--------------------|-
B|---------------------------------12-9------9-10/14v-|-
G|----11-11-11-11-14-9------------------11-9----------|-
D|----------------------------------------------------|-
A|----------------------------------------------------|-
E|----------------------------------------------------|-

Stave 4:

E|-14-14-14-14-14h16-13-|-12----9----------------------------------|-
B|----------------------|---------12-9-----------------------------|-
G|-11-11-11-11-11-13-9--|--------------11-9-11b13r11-9-------------|-
D|----------------------|------------------------------11-9--------|-
A|----------------------|-----------------------------------11-9-7-|-
E|----------------------|------------------------------------------|-

Stave 5:

E|-14-14-14-14-14/16-|-------------------|-
B|-------------------|-12/14-14-14/16-12-|-
G|-11-11-11-11-11-13-|-------------------|-
D|-------------------|-9--11-11-11-13-9--|-
A|-------------------|-------------------|-
E|-------------------|-------------------|-

Stave 6:

E|-14-14-14-14-14-16-12-|-12-9-----------------------------------|-
B|----------------------|------12-9-----------------------10/17v-|-
G|-11-11-11-11-11/13-9--|-----------12-11-9----11----9-----------|-
D|----------------------|-------------------11----11---11--------|-
A|----------------------|----------------------------------------|-
E|----------------------|----------------------------------------|-

Stave 7:

E|-
B|-
G|-
D|-
A|-
E|-

http://www.guitartabcreator.com
Guitar Tab Creator is intended to store guitar tab created through the tool. It currently does not support in-line text editing. Any text you place in here will be lost. If you need to comment on your tab, please use the "Tab Notes" section located below.