Sound will begin in 5 seconds

From the Inside Out - C

Chords
01234567891011121314151617181920212223
E
B
G
D
A
E
B
0 1 2 3 4 5 6 7 8 9 10 11 12 13 14 15 16 17 18 19 20 21 22 23
Song Science #1: How Pros Use 6 Chords to Write Hit Songs
(/) Slide Up  (\) Slide Down  (h) Hammer On  (p) Pull Off  (b) Bend (r) Release (v) Vibrato

Stave 1:

E|-8--8--8--8--8--8--8--8--8-8-8-8-8-8-8-8-------12-12-12-12-12-12-13-13-13-13-13-12-12-12-
B|-10-10-10-10-10-10-10-10-8-8-8-8-8-8-8-8-13-13-13-13-13-13-13-13-13-13-13-13-13-13-13-13-
G|-----------------------------------------------------------------------------------------
D|-----------------------------------------------------------------------------------------
A|-----------------------------------------------------------------------------------------
E|-----------------------------------------------------------------------------------------

Stave 2:

E|------------------------------------------------------------------12-12-------------------
B|-13-13-12-12-10h12----13\12-10-10h12------------10-10-10-12-12-12-13-13-12-12-10-10-------
G|-------------------12----------------10-9-9-7-7-------------------------------------12-12-
D|------------------------------------------------------------------------------------------
A|------------------------------------------------------------------------------------------
E|------------------------------------------------------------------------------------------

Stave 3:

E|-------------------------------------------12-12-12-12-12-12-12-12----------17-------17-
B|-13-13-13-13-13-13-13-13-13-13-12-12-13-13-13-13-13-13-13-13-13-13-15-15-15----15-15----
G|-12-12-12-12-12-12-12-12----------------------------------------------------------------
D|----------------------------------------------------------------------------------------
A|----------------------------------------------------------------------------------------
E|----------------------------------------------------------------------------------------

Stave 4:

E|-------17-------17-17/19-|----------12----------12-------------
B|-15-15----15-15----------|-------13----------13----13-15-12----
G|-------------------------|-12h14----------12----------------12-
D|-------------------------|-------------------------------------
A|-------------------------|-------------------------------------
E|-------------------------|-------------------------------------

Stave 5:

E|-----0----0-3-1----0------------------0----0-3-1----0-----
B|---1-----------------1-3----0h1h3---1-----------------1-3-
G|-2--------------------------------2-----------------------
D|----------------------------------------------------------
A|----------------------------------------------------------
E|----------------------------------------------------------

http://www.guitartabcreator.com
Guitar Tab Creator is intended to store guitar tab created through the tool. It currently does not support in-line text editing. Any text you place in here will be lost. If you need to comment on your tab, please use the "Tab Notes" section located below.