Sound will begin in 5 seconds

This I Believe - A - Hillsong

Chords
01234567891011121314151617181920212223
E
B
G
D
A
E
B
0 1 2 3 4 5 6 7 8 9 10 11 12 13 14 15 16 17 18 19 20 21 22 23
Song Science #1: How Pros Use 6 Chords to Write Hit Songs
(/) Slide Up  (\) Slide Down  (h) Hammer On  (p) Pull Off  (b) Bend (r) Release (v) Vibrato

Stave 1:

E|----------------------------
B|--7--7--10--10--9--9--5--5--
G|----------------------------
D|----------------------------
A|--5--5--9---9---7--7--4--4--
E|----------------------------

Stave 2:

E|------9-------9-------9-------9---12--12--|-----7-----7-----7-----7------------|--
B|------10------10------10------10--14--14--|-----9-----9-----9-----9-----10--9--|--
G|--11------11------11------11------14--14--|--9-----9-----9-----9-----7---------|--
D|------------------------------------------|------------------------------------|--
A|------------------------------------------|------------------------------------|--
E|------------------------------------------|------------------------------------|--

Stave 3:

E|------9-------9-------9-------9----------9--|-----7-----7-----7-----7---------|--
B|------10------10------10------10--10h12-----|-----9-----9-----9-----9--10--9--|--
G|--11------11------11------11----------------|--9-----9-----9-----9------------|--
D|--------------------------------------------|---------------------------------|--
A|--------------------------------------------|---------------------------------|--
E|--------------------------------------------|---------------------------------|--

Stave 4:

E|--9------9------9------9------12--12--|--5-----5-----5-----5-----7--9--|--5-----5-----5-----5--------------|----------------------------------
B|-----10-----10-----10-----10----------|-----7-----7-----7-----7--------|-----7-----7-----7-----7--9--9--9--|--10--10--10--10--10--10--10--10--
G|--------------------------------------|--------------------------------|-----------------------------------|--9---9---9---9---9---9---9---9---
D|--------------------------------------|--------------------------------|-----------------------------------|--7---7---7---7---7---7---7---7---
A|--------------------------------------|--------------------------------|-----------------------------------|----------------------------------
E|--------------------------------------|--------------------------------|-----------------------------------|----------------------------------

Stave 5:

E|-------2-----5--------5-----5--|--------4--4--------5--4--2-----
B|--2h5-----2--------2-----2-----|-----5-----------5-----------5--
G|----------------2--------------|--4-----------4-----------------
D|-------------------------------|--------------------------------
A|-------------------------------|--------------------------------
E|-------------------------------|--------------------------------

Stave 6:

E|--------4--4--------4-----------|------9------9------7------9--5--|------9------9------7------
B|-----5-----------5--------5-----|--10-----10-----10-----10--------|--10-----10-----10-----10--
G|--4-----------4--------4-----4--|---------------------------------|---------------------------
D|--------------------------------|---------------------------------|---------------------------
A|--------------------------------|---------------------------------|---------------------------
E|--------------------------------|---------------------------------|---------------------------

http://www.guitartabcreator.com
Guitar Tab Creator is intended to store guitar tab created through the tool. It currently does not support in-line text editing. Any text you place in here will be lost. If you need to comment on your tab, please use the "Tab Notes" section located below.