Sound will begin in 5 seconds

How He Loves - F (Instrumentals)

01234567891011121314151617181920212223
E
B
G
D
A
E
B
0 1 2 3 4 5 6 7 8 9 10 11 12 13 14 15 16 17 18 19 20 21 22 23
Song Science #1: How Pros Use 6 Chords to Write Hit Songs
(/) Slide Up  (\) Slide Down  (h) Hammer On  (p) Pull Off  (b) Bend (r) Release (v) Vibrato

Stave 1:

E|------------------------------------------------
B|------------------------------11----11----11/13-
G|-10-9---10-9------10-9---5/10----10----10-------
D|------7------7-10------7------------------------
A|------------------------------------------------
E|------------------------------------------------

Stave 2:

E|-13-12-----13-12-----------13-12-----13/17-------17-------17-
B|-------10--------10-10/13--------10--------18-18----18-18----
G|-------------------------------------------------------------
D|-------------------------------------------------------------
A|-------------------------------------------------------------
E|-------------------------------------------------------------

Stave 3:

E|-17-17-17-17-17-17-12-12-12-13-13----17-17-17-17-17-17-12-12-12-13-13----
B|----------------------------------13----------------------------------13-
G|-------------------------------------------------------------------------
D|-------------------------------------------------------------------------
A|-------------------------------------------------------------------------
E|-------------------------------------------------------------------------

Stave 4:

E|-18-18-18-17-17-17-12-12-12-13-13-13-
B|-------------------------------------
G|-------------------------------------
D|-------------------------------------
A|-------------------------------------
E|-------------------------------------

Stave 5:

E|-------15----15-------15-------15----15/17-
B|-13-13----13----13-13----13-13----13-------
G|-------------------------------------------
D|-------------------------------------------
A|-------------------------------------------
E|-------------------------------------------

http://www.guitartabcreator.com
Guitar Tab Creator is intended to store guitar tab created through the tool. It currently does not support in-line text editing. Any text you place in here will be lost. If you need to comment on your tab, please use the "Tab Notes" section located below.