Sound will begin in 5 seconds

How He Loves - C (Instrumentals)

01234567891011121314151617181920212223
E
B
G
D
A
E
B
0 1 2 3 4 5 6 7 8 9 10 11 12 13 14 15 16 17 18 19 20 21 22 23
Song Science #1: How Pros Use 6 Chords to Write Hit Songs
(/) Slide Up  (\) Slide Down  (h) Hammer On  (p) Pull Off  (b) Bend (r) Release (v) Vibrato

Stave 1:

E|------------------------------------8-
B|--------------------------6---6---6---
G|-5-4----5-4------5-4----5---5---5-----
D|-----2------2-5------2----------------
A|--------------------------------------
E|--------------------------------------

Stave 2:

E|-------------------------------------------------------
B|-13-12-----13-12--------13-12-----17-------17-------20-
G|--------------------12---------------17-17----17-17----
D|-------14--------14-----------14-----------------------
A|-------------------------------------------------------
E|-------------------------------------------------------

Stave 3:

E|--------------------------------------------------------------------------
B|-17-17-17-17-17-17-12-12-12-13-13-----17-17-17-17-17-17-17-12-12-12-13----
G|----------------------------------13-----------------------------------13-
D|--------------------------------------------------------------------------
A|--------------------------------------------------------------------------
E|--------------------------------------------------------------------------

Stave 4:

E|----------------------------------------------------------------------
B|-18-18-18-17-17-17-12-12-12-13-13----18-18-18-17-17-17-12-12-12-13-13-
G|----------------------------------13----------------------------------
D|----------------------------------------------------------------------
A|----------------------------------------------------------------------
E|----------------------------------------------------------------------

Stave 5:

E|----------------------------------------
B|-------15----15----------15----15----17-
G|-12-12----12----12-12-12----12----12----
D|----------------------------------------
A|----------------------------------------
E|----------------------------------------

http://www.guitartabcreator.com
Guitar Tab Creator is intended to store guitar tab created through the tool. It currently does not support in-line text editing. Any text you place in here will be lost. If you need to comment on your tab, please use the "Tab Notes" section located below.