Sound will begin in 5 seconds

Hosanna - D - Hillsong - Lead Tabs

Chords
01234567891011121314151617181920212223
E
B
G
D
A
E
B
0 1 2 3 4 5 6 7 8 9 10 11 12 13 14 15 16 17 18 19 20 21 22 23
Song Science #1: How Pros Use 6 Chords to Write Hit Songs
(/) Slide Up  (\) Slide Down  (h) Hammer On  (p) Pull Off  (b) Bend (r) Release (v) Vibrato

Stave 1:

E|-----2-------2------------------------------------------------2-------2-----------------------
B|---3-----3h5-------2-----2-------3---3-------2-------2------3-----3h5-------2-----2-------3---
G|-4-----4---------2-----2-------4-------4---2-----2h4------4-----4---------2-----2-------4-----
D|---------------4-----4-----4/5-----5-----4-----4------------------------4-----4-----4/5-----5-
A|----------------------------------------------------------------------------------------------
E|----------------------------------------------------------------------------------------------

Stave 2:

E|-5-----------10-10-|-
B|---3-----5---10----|-
G|-------6---6-11----|-
D|-----7-------------|-
A|-------------------|-
E|-------------------|-

Stave 3:

E|-10----10-----------2---2-------------------------2---2---2---5---3-
B|-10-------10------3---3------------0-2----------3---3---3---3---3---
G|-11-------------4---------4------0-----2------4---------------------
D|-------------------------------2---------2--------------------------
A|--------------------------------------------------------------------
E|--------------------------------------------------------------------

Stave 4:

E|-----------------------------------------------------------------|-----2-2---2-2---2-2---5-3-10-
B|-----3-------3-------3-------3-------3-------3-------3-------3---|---3-----3-----3-----3-----10-
G|---2---2---2---2---2---2---2---2---2---2---2---2---2---2---2---2-|-4-------------------------11-
D|-0-------0-------0-------0-------0-------0-------0-------0-------|------------------------------
A|-----------------------------------------------------------------|------------------------------
E|-----------------------------------------------------------------|------------------------------

Stave 5:

E|-10-10----|-----2---2---|-------------|-10-10----|-----2-2---|---------------------------------
B|-10----10-|---3---3-----|-----0-2-----|-10----10-|---3-----3-|-------0-----0---0-2-------2-----
G|-11-------|-4---------4-|---0-----2---|-11-------|-4---------|-----0-----0---0-----2---2---2---
D|----------|-------------|-2---------2-|----------|-----------|-2-2-----2-------------2-------2-
A|----------|-------------|-------------|----------|-----------|---------------------------------
E|----------|-------------|-------------|----------|-----------|---------------------------------

Stave 6:

E|---------------------------------------------------------------------------|-
B|-10-10-10-10-10-7-5-7-10-10-10/12\10-7-5-7-8-8-8-8-8-7-5---------------5-5-|-
G|---------------------------------------------------------7-6-6-6-6-7-7-----|-
D|---------------------------------------------------------------------------|-
A|---------------------------------------------------------------------------|-
E|---------------------------------------------------------------------------|-

Stave 7:

E|-----------------------------------------------------------0-0-0-0-0-0-0-0-
B|-10-10-10/12\10-7-5-7-10-10-10/12\10-7-5-7-8-8---8---8-----5-5-5-5-5-5-5-5-
G|-----------------------------------------------6---6---6-7-----------------
D|---------------------------------------------------------------------------
A|---------------------------------------------------------------------------
E|---------------------------------------------------------------------------

Stave 8:

E|--------------------------9-10-|--------------------------9-10-|-
B|-----10-12-10-7---------7------|-----10-12-10-7---------7------|-
G|---7------------9-7---7--------|---7------------9-7---7--------|-
D|-9------------------9----------|-9------------------9----------|-
A|-------------------------------|-------------------------------|-
E|-------------------------------|-------------------------------|-

http://www.guitartabcreator.com
Guitar Tab Creator is intended to store guitar tab created through the tool. It currently does not support in-line text editing. Any text you place in here will be lost. If you need to comment on your tab, please use the "Tab Notes" section located below.