Sound will begin in 5 seconds

God My Rock - Solo 1/ Solo 2 (D)

Chords
01234567891011121314151617181920212223
E
B
G
D
A
E
B
0 1 2 3 4 5 6 7 8 9 10 11 12 13 14 15 16 17 18 19 20 21 22 23
Song Science #1: How Pros Use 6 Chords to Write Hit Songs
(/) Slide Up  (\) Slide Down  (h) Hammer On  (p) Pull Off  (b) Bend (r) Release (v) Vibrato

Stave 1:

E|----------------------------10--10--10---------------------10--9--10--10--10--10---------------
B|----------------------8--7--10--10--10----------------------------12--12--12--12--------------p
G|--9b11--9b11r9--7-----------------------9b11--11--11r9--7-------------------------9b11--9b11r9-
D|-------------------7---------------------------------------------------------------------------
A|-----------------------------------------------------------------------------------------------
E|-----------------------------------------------------------------------------------------------

Stave 2:

E|------------------12h14------12h14-------------
B|--12--14--15--19---------12---------12--12\10--
G|-----------------------------------------------
D|-----------------------------------------------
A|-----------------------------------------------
E|-----------------------------------------------

Stave 3:

E|--10--10--10----------------------------10--10--10--10---------------------10--9--10--10--10--10--
B|--10--10--10----------------------8--7--10--10--10--10----------------------------12--12--12--12--
G|--_----------9b11--9b11r9--7---------------------------9h11--11--11r9--7-------------------------
D|--_---------------------------7------------------------------------------------------------------
A|--_----------------------------------------------------------------------------------------------
E|--_----------------------------------------------------------------------------------------------

Stave 4:

E|--------------------------10--10------------------------------------------
B|-------------------10b12--12--12--12r10--7--7--8--8--8--8--8--8--8--8--8--
G|--9b11--9b11r9--7---------------------------------------------------------
D|--------------------------------------------------------------------------
A|--------------------------------------------------------------------------
E|--------------------------------------------------------------------------

Stave 5:

E|--14--14--14--14--14--14--14--12h14------12h14------12--12--12--12--12--12--12h14------12h14------
B|--15--15--15--15--15--15--15---------15---------12--14--14--14--14--14--14---------14---------12--
G|--_----------------------------------------------------------------------------------------------
D|--_----------------------------------------------------------------------------------------------
A|--_----------------------------------------------------------------------------------------------
E|--_----------------------------------------------------------------------------------------------

Stave 6:

E|--10--10--10--10--10--10--10--------------------------------------
B|--12--12--12--12--12--12--12--14--14--14--14--15--15--15--15--15--
G|--_--------------------------------------------------------------
D|--_--------------------------------------------------------------
A|--_--------------------------------------------------------------
E|--_--------------------------------------------------------------

http://www.guitartabcreator.com
Guitar Tab Creator is intended to store guitar tab created through the tool. It currently does not support in-line text editing. Any text you place in here will be lost. If you need to comment on your tab, please use the "Tab Notes" section located below.