Sound will begin in 5 seconds

God My Rock - Intro & Verse/Chorus licks (D)

Chords
01234567891011121314151617181920212223
E
B
G
D
A
E
B
0 1 2 3 4 5 6 7 8 9 10 11 12 13 14 15 16 17 18 19 20 21 22 23
Song Science #1: How Pros Use 6 Chords to Write Hit Songs
(/) Slide Up  (\) Slide Down  (h) Hammer On  (p) Pull Off  (b) Bend (r) Release (v) Vibrato

Stave 1:

E|--10--10--10--10--5----5--5----5--------------------------------------------
B|--10--10--10--10--5h7--7--5h7--7--5\3-----8--7--8/10--10--10--8--7----------
G|--_----------------------------------------------------------------9b11r9--
D|--_-----------------------------------7------------------------------------
A|--_------------------------------------------------------------------------
E|--_------------------------------------------------------------------------

Stave 2:

E|-------10--9-----------------------------------------------------------------------14--
B|--------------10/12--10--8--7--5---------7/12--12--12--------------------------15------
G|----7-----------------------------7b9r7----------------12--11--12--14--12--16----------
D|---------------------------------------------------------------------------------------
A|---------------------------------------------------------------------------------------
E|---------------------------------------------------------------------------------------

Stave 3:

E|--10--9--7--5--3--2--3--------------------------
B|--------------------------10--8--7--8--7--5--3--
G|------------------------------------------------
D|------------------------------------------------
A|------------------------------------------------
E|------------------------------------------------

Stave 4:

E|-------7--5h7-----
B|--5h7----------7--
G|------------------
D|------------------
A|------------------
E|------------------

Stave 5:

E|-------7-------7--
B|--5h7-----5h7-----
G|------------------
D|------------------
A|------------------
E|------------------

Stave 6:

E|-------7----5----2--
B|--5h7---------------
G|--------------------
D|--------------------
A|--------------------
E|--------------------

http://www.guitartabcreator.com
Guitar Tab Creator is intended to store guitar tab created through the tool. It currently does not support in-line text editing. Any text you place in here will be lost. If you need to comment on your tab, please use the "Tab Notes" section located below.