Sound will begin in 5 seconds

Glory to Glory

Chords
01234567891011121314151617181920212223
E
B
G
D
A
E
B
0 1 2 3 4 5 6 7 8 9 10 11 12 13 14 15 16 17 18 19 20 21 22 23
Song Science #1: How Pros Use 6 Chords to Write Hit Songs
(/) Slide Up  (\) Slide Down  (h) Hammer On  (p) Pull Off  (b) Bend (r) Release (v) Vibrato

Stave 1:

E|------------------------------------------------------------------------------------------------
B|------------------------------------------------------------------------------------------------
G|------------------------------------------------------------------------------------------------
D|-10-10-10-10-7-7-7-7---------10-10-10-12-12-12----10-10-10-10-7-7-7-7---------10-10-10-12-12-12-
A|---------------------7-7-7-7------------------------------------------7-7-7-7-------------------
E|------------------------------------------------------------------------------------------------

Stave 2:

E|--------------------------------------------------
B|--------------------------------------------------
G|--------------------------------------------------
D|-10-10-10-10-7-7-7-7---------10-10-10-12-12-12----
A|---------------------7-7-7-7----------------------
E|--------------------------------------------------

Stave 3:

E|------|------|------|-------------|------|------|------|-8-8-8-8-8-8-8-
B|-1----|-1----|-1----|-------------|-1----|-1----|-1----|-8-8-8-8-8-8-8-
G|-0----|-2----|-0----|-5-5-5-7-7-7-|-0----|-2----|-0----|-7-7-7-7-7-7-7-
D|------|-3----|-2----|-------------|------|-3----|-2----|---------------
A|------|------|------|-------------|------|------|------|---------------
E|------|------|------|-------------|------|------|------|---------------

Stave 4:

E|----------------------------------------------------------------------------------------
B|----------------------------------------------------------------8-8-8-10-10-10-13-------
G|-5-----5-----5-----5-7-7b9-7b9r7-5----------5-----5-----5-9-9-9-------------------------
D|---5h7---5h7---5h7-----------------7----5h7---5h7---5h7---------------------------------
A|----------------------------------------------------------------------------------------
E|----------------------------------------------------------------------------------------

Stave 5:

E|---------------------------------------------------------------------------------------------
B|-------13-------13-------13----13-15b17-15b17r15-13-------------13-------13------------------
G|-12h14----12h14----12h14----14----------------------14----12h14----12h14----12h14-7h9-5v-v-v-
D|---------------------------------------------------------------------------------------------
A|---------------------------------------------------------------------------------------------
E|---------------------------------------------------------------------------------------------

http://www.guitartabcreator.com
Guitar Tab Creator is intended to store guitar tab created through the tool. It currently does not support in-line text editing. Any text you place in here will be lost. If you need to comment on your tab, please use the "Tab Notes" section located below.