Sound will begin in 5 seconds

Everlating God - Lincoln Brewster (B) Instrumental

01234567891011121314151617181920212223
E
B
G
D
A
E
B
0 1 2 3 4 5 6 7 8 9 10 11 12 13 14 15 16 17 18 19 20 21 22 23
Song Science #1: How Pros Use 6 Chords to Write Hit Songs
(/) Slide Up  (\) Slide Down  (h) Hammer On  (p) Pull Off  (b) Bend (r) Release (v) Vibrato

Stave 1:

E|-------------------------------------------------------------------------------14-----------------------12h14--11----------
B|------------------------------------------------------------------7/12--14b16------16r14--12-----14b16-------------14--12--
G|-----------6--6--8--8--8/9\8--8--6-----6--8--9--8--6-----6--8--8-----------------------------------------------------------
D|--9--9--9---------------------------9-----------------9--------------------------------------------------------------------
A|---------------------------------------------------------------------------------------------------------------------------
E|---------------------------------------------------------------------------------------------------------------------------

Stave 2:

E|-----------------------------------------------------------------------------------------------------------------
B|--9------12-----------------------------14p12--16p12-----14p12--16p12--17p12--16p12--14p12-----14h16p14------14--
G|-----11------9\8-----------------------------------------------------------------------------------------16------
D|------------------11--9--11--9h11p9------------------------------------------------------------------------------
A|-----------------------------------------------------------------------------------------------------------------
E|-----------------------------------------------------------------------------------------------------------------

Stave 3:

E|-------------------------------------------------------------------------------------------------------16--18--16--18--19--21--
B|--14h16p14------14-----9--11--12p11p9---------------------------------9/19-----19--17--16------16--17--------------------------
G|------------16-------------------------11--9--8--9--11--11--11--8--------------------------18----------------------------------
D|-------------------------------------------------------------------------------------------------------------------------------
A|-------------------------------------------------------------------------------------------------------------------------------
E|-------------------------------------------------------------------------------------------------------------------------------

http://www.guitartabcreator.com
Guitar Tab Creator is intended to store guitar tab created through the tool. It currently does not support in-line text editing. Any text you place in here will be lost. If you need to comment on your tab, please use the "Tab Notes" section located below.