Sound will begin in 5 seconds

Everlasting God - Lincoln Brewster - B

Chords
01234567891011121314151617181920212223
E
B
G
D
A
E
B
0 1 2 3 4 5 6 7 8 9 10 11 12 13 14 15 16 17 18 19 20 21 22 23
Song Science #1: How Pros Use 6 Chords to Write Hit Songs
(/) Slide Up  (\) Slide Down  (h) Hammer On  (p) Pull Off  (b) Bend (r) Release (v) Vibrato

Stave 1:

E|-------------------------------------------------------------------------14-16-------------
B|---------------------------------------------7/12-14b16-12-14-12---14b16-------14b16r14-12-
G|-4-4-4-6-6-8-8-8-9-8-8-6-4-6-8-9-8-6-4-6-8-8-----------------------------------------------
D|-------------------------------------------------------------------------------------------
A|-2-2-2-4-4-6-6-6-7-6-6-4-2-4-6-7-6-4-2-4-6-6-----------------------------------------------
E|-------------------------------------------------------------------------------------------

Stave 2:

E|-----7-----------------------9p7---11p7-------9p7---11p7---12p7---11p7---9p7-
B|-9p7---7\5\4\2----0-0h2p0--------7------7-7-7-----7------7------7------7-----
G|-----------------------------------------------------------------------------
D|-----------------------------------------------------------------------------
A|-----------------------------------------------------------------------------
E|-----------------------------------------------------------------------------

Stave 3:

E|---9h11p9p7-9---9h11p9p7-9---------------------------------------------------------16-18-16-18-19-21-
B|-7------------7------------9-11-12p11p9------------------------9/19-17-16----16-17-------------------
G|----------------------------------------11-9-8-9-11-11-11-8---------------18-------------------------
D|-----------------------------------------------------------------------------------------------------
A|-----------------------------------------------------------------------------------------------------
E|-----------------------------------------------------------------------------------------------------

http://www.guitartabcreator.com
Guitar Tab Creator is intended to store guitar tab created through the tool. It currently does not support in-line text editing. Any text you place in here will be lost. If you need to comment on your tab, please use the "Tab Notes" section located below.