Sound will begin in 5 seconds

Everlasting God - Lincoln Brewster (A)

01234567891011121314151617181920212223
E
B
G
D
A
E
B
0 1 2 3 4 5 6 7 8 9 10 11 12 13 14 15 16 17 18 19 20 21 22 23
Song Science #1: How Pros Use 6 Chords to Write Hit Songs
(/) Slide Up  (\) Slide Down  (h) Hammer On  (p) Pull Off  (b) Bend (r) Release (v) Vibrato

Stave 1:

E|----------------------------------------------------------------------------12-------------
B|---------------------------------------------------------------7/10--12b14------14b12--10--
G|-----------4--4--6--6--6/7\6--6--4-----4--6--7--6--4-----6--6------------------------------
D|--7--7--7---------------------------7-----------------7------------------------------------
A|-------------------------------------------------------------------------------------------
E|-------------------------------------------------------------------------------------------

Stave 2:

E|---------10h12--9---------------------------------------------------------------------------
B|--12b14------------12--10--7-----10--10p9p7-----7----------------------12p10--14p10--10h12--
G|------------------------------9--------------9-----9p7p6--4--6--6p4p2-----------------------
D|--------------------------------------------------------------------------------------------
A|--------------------------------------------------------------------------------------------
E|--------------------------------------------------------------------------------------------

Stave 3:

E|---------------------------------------------------------------------------------------
B|--12p10--14p10--12p10--14p10--15p10--14p10--12p10--12h14p12------12--12h14p12------12--
G|-------------------------------------------------------------14----------------14------
D|---------------------------------------------------------------------------------------
A|---------------------------------------------------------------------------------------
E|---------------------------------------------------------------------------------------

Stave 4:

E|----------------------------------------------------------------------------14--16--14--16--17--19--
B|----7--9--10--9--7------------------------7/17--17--17--15--14------14--15--------------------------
G|--------------------9--7--6--6--9--9--6v------------------------16----------------------------------
D|----------------------------------------------------------------------------------------------------
A|----------------------------------------------------------------------------------------------------
E|----------------------------------------------------------------------------------------------------

http://www.guitartabcreator.com
Guitar Tab Creator is intended to store guitar tab created through the tool. It currently does not support in-line text editing. Any text you place in here will be lost. If you need to comment on your tab, please use the "Tab Notes" section located below.