Sound will begin in 5 seconds

All the World Will Sing Your Praises (E)

01234567891011121314151617181920212223
E
B
G
D
A
E
B
0 1 2 3 4 5 6 7 8 9 10 11 12 13 14 15 16 17 18 19 20 21 22 23
Song Science #1: How Pros Use 6 Chords to Write Hit Songs
(/) Slide Up  (\) Slide Down  (h) Hammer On  (p) Pull Off  (b) Bend (r) Release (v) Vibrato

Stave 1:

E|-------------------------------4--5--7--5p4-----------------7--------------------------------
B|----5\4--4\2----2--4--4/5--------------------5---------7b9-----9r7--5------------------------
G|------------------------------------------------2-----------------------------9\8--8\6--6\4--
D|-----------------------------------------------------------------------7---------------------
A|---------------------------------------------------------------------------------------------
E|---------------------------------------------------------------------------------------------

Stave 2:

E|-----------------------------------------------------------------8---------------------------
B|----5\4--4\2--2--4--4/5---------------------------------4--5--4------------------------------
G|-----------------------------9--9\8--8\6--6\4--4\2----------------------------9\8--8\6--6\4--
D|---------------------------------------------------------------------------------------------
A|---------------------------------------------------------------------------------------------
E|---------------------------------------------------------------------------------------------

Stave 3:

E|----
B|----
G|----
D|----
A|----
E|----

Stave 4:

E|--|--
B|--|--
G|--|--
D|--|--
A|--|--
E|--|--

http://www.guitartabcreator.com
Guitar Tab Creator is intended to store guitar tab created through the tool. It currently does not support in-line text editing. Any text you place in here will be lost. If you need to comment on your tab, please use the "Tab Notes" section located below.