13 - BS

Chords

01234567891011121314151617181920212223
E
B
G
D
A
E
B
0 1 2 3 4 5 6 7 8 9 10 11 12 13 14 15 16 17 18 19 20 21 22 23
(/) Slide Up  (\) Slide Down  (h) Hammer On  (p) Pull Off  (b) Bend (r) Release (v) Vibrato

Stave 1:

E|------------------------------
B|--------3---------------------
G|-----0-----0-----0---------0--
D|--------0-----------0h2p0-----
A|--------------3---------------
E|--3---------------------------

Stave 2:

E|-------------------------------------------------------------------------------------------------------
B|--------3-----------3--------------1-----------3-----------------1-----3-----------3p1-----1-----------
G|-----0-----0-----0-----0--------0-----0-----0-----0--------0-----------------0-------------------0-----
D|--------0-----------0--------------2-----------0--------------2-----------2-------------2-----------2--
A|--2--------------------------3-----------2--------------0-----------0--------------0----------0--------
E|--------------0----------------------------------------------------------------------------------------

Stave 3:

E|-----------------------------------------------------------------------------------------------
B|-----------3--------------1--------3-----1--------0-----------3--------1--------3-----------3--
G|-----0-----------0-----------0--------------------------0-----------------0-----------0--------
D|--------2-----------2-----------2-----------2--------2-----------2-----------2-----------2-----
A|--------------------------0-----------0--------------------------------0-----------0-----------
E|--0-----------0-----------------------------------0--------0-----------------------------------

Stave 4:

E|----------------------------------------------------------------------------------------------------------------------
B|-----------1--------------------3--------------0--------------0-----------1--------3--------3p1-----1--------------0--
G|-----0-----------0-----------0-----0-----0--------------0-----------0--------------------0-------------------0--------
D|--------2-----------2-----0-----------------2--------------0-----------2--------------2----------2--------------2-----
A|--0-----------0-----------------------3--------------2-----------0--------------0-----------0-------------0-----------
E|----------------------------------------------------------------------------------------------------------------------

Stave 5:

E|-----------------------------------------------------
B|-----------------------------------------------------
G|-----0-----0-----0-----0--------0-----0-----0-----0--
D|--------0-----------2--------------0-----------2-----
A|--------------0--------------------------0-----------
E|--3--------------------------3-----------------------

							http://www.guitartabcreator.com
Instruments
{"strings":[[[".",".",".",".",".",".",".",".",".",".",".","."],[".",".",3,".",".",".",".",".",".",".",".","."],[".",0,".",0,".",0,".",".",".",".",".",0],[".",".",0,".",".",".",0,"h",2,"p",0,"."],[".",".",".",".",3,".",".",".",".",".",".","."],[3,".",".",".",".",".",".",".",".",".",".","."]],[[".",".",".",".",".",".",".",".","_",".",".",".",".",".",".",".",".","_",".",".",".",".",".",".",".",".","_",".",".",".",".",".",".",".","."],[".",".",3,".",".",".",3,".","_",".",".",1,".",".",".",3,".","_",".",".",".",1,".",3,".",".","_",3,"p",1,".",1,".",".","."],[".",0,".",0,".",0,".",0,"_",".",0,".",0,".",0,".",0,"_",".",0,".",".",".",".",".",0,"_",".",".",".",".",".",".",0,"."],[".",".",0,".",".",".",0,".","_",".",".",2,".",".",".",0,".","_",".",".",2,".",".",".",2,".","_",".",".",".",2,".",".",".",2],[2,".",".",".",".",".",".",".","_",3,".",".",".",2,".",".",".","_",0,".",".",".",0,".",".",".","_",0,".",".",".",".",0,".","."],[".",".",".",".",0,".",".",".","_",".",".",".",".",".",".",".",".","_",".",".",".",".",".",".",".",".","_",".",".",".",".",".",".",".","."]],[[".",".",".",".",".",".",".","_",".",".",".",".",".",".",".","_",".",".",".",".",".",".","_",".",".",".",".",".",".",".","."],[".",".",".",3,".",".",".","_",1,".",".",3,".",1,".","_",0,".",".",".",3,".","_",1,".",".",3,".",".",".",3],[".",0,".",".",".",0,".","_",".",0,".",".",".",".",".","_",".",".",0,".",".",".","_",".",0,".",".",".",0,".","."],[".",".",2,".",".",".",2,"_",".",".",2,".",".",".",2,"_",".",2,".",".",".",2,"_",".",".",2,".",".",".",2,"."],[".",".",".",".",".",".",".","_",0,".",".",".",0,".",".","_",".",".",".",".",".",".","_",0,".",".",".",0,".",".","."],[0,".",".",".",0,".",".","_",".",".",".",".",".",".",".","_",0,".",".",0,".",".","_",".",".",".",".",".",".",".","."]],[[".",".",".",".",".",".",".","_",".",".",".",".",".",".",".",".","_",".",".",".",".",".",".",".",".","_",".",".",".",".",".",".",".",".",".","_",".",".",".","."],[".",".",".",1,".",".",".","_",".",".",3,".",".",".",".",0,"_",".",".",".",0,".",".",".",1,"_",".",3,".",".",3,"p",1,".",1,"_",".",".",".",0],[".",0,".",".",".",0,".","_",".",0,".",0,".",0,".",".","_",".",0,".",".",".",0,".",".","_",".",".",".",0,".",".",".",".",".","_",".",0,".","."],[".",".",2,".",".",".",2,"_",0,".",".",".",".",".",2,".","_",".",".",0,".",".",".",2,".","_",".",".",2,".",".",".",".",2,".","_",".",".",2,"."],[0,".",".",".",0,".",".","_",".",".",".",".",3,".",".",".","_",2,".",".",".",0,".",".",".","_",0,".",".",".",0,".",".",".",".","_",0,".",".","."],[".",".",".",".",".",".",".","_",".",".",".",".",".",".",".",".","_",".",".",".",".",".",".",".",".","_",".",".",".",".",".",".",".",".",".","_",".",".",".","."]],[[".",".",".",".",".",".",".",".","_",".",".",".",".",".",".",".","."],[".",".",".",".",".",".",".",".","_",".",".",".",".",".",".",".","."],[".",0,".",0,".",0,".",0,"_",".",0,".",0,".",0,".",0],[".",".",0,".",".",".",2,".","_",".",".",0,".",".",".",2,"."],[".",".",".",".",0,".",".",".","_",".",".",".",".",0,".",".","."],[3,".",".",".",".",".",".",".","_",3,".",".",".",".",".",".","."]]],"numberofstrings":6,"notes":["E","B","G","D","A","E","B"],"capo":0,"stringnotes":["E4","B3","G3","D3","A2","E2"],"comments":["Stave 1:","Stave 2:","Stave 3:","Stave 4:","Stave 5:"],"timing":[["W","W","W","W","W","W","W",null,"W",null,"W","W"],["W","W","W","W","W","W","W","W",null,"W","W","W","W","W","W","W","W",null,"W","W","W","W","W","W","W","W",null,"W",null,"W","W","W","W","W","W"],["W","W","W","W","W","W","W",null,"W","W","W","W","W","W","W",null,"W","W","W","W","W","W",null,"W","W","W","W","W","W","W","W"],["W","W","W","W","W","W","W",null,"W","W","W","W","W","W","W","W",null,"W","W","W","W","W","W","W","W",null,"W","W","W","W","W",null,"W","W","W",null,"W","W","W","W"],["W","W","W","W","W","W","W","W",null,"W","W","W","W","W","W","W","W"]],"timingvisible":false,"tabcounter":17,"stave":4,"totalstaves":5,"instrument":"6guitar","selectedtuning":"6_standard","version":"13"}

Member for

1 month 2 weeks
Submitted by efdm on Tue, 2020-10-20 20:37