Sound will begin in 5 seconds

Sweet & Sweet Cherry

01234567891011121314151617181920212223
E
B
G
D
A
E
B
0 1 2 3 4 5 6 7 8 9 10 11 12 13 14 15 16 17 18 19 20 21 22 23
Song Science #1: How Pros Use 6 Chords to Write Hit Songs
(/) Slide Up  (\) Slide Down  (h) Hammer On  (p) Pull Off  (b) Bend (r) Release (v) Vibrato

Stave 1:

E|-----------4--------------4-----4--8--9--8--6--4--------------4--------------4-----3-----3--6--4--
B|--1--2--4--------1--2--4-----------------------------1--2--4--------1--2--4-----------6-----------
G|--------------------------------------------------------------------------------------------------
D|--------------------------------------------------------------------------------------------------
A|--------------------------------------------------------------------------------------------------
E|--------------------------------------------------------------------------------------------------

Stave 2:

E|-----------4-----3--4-----6--4--6--8--4-----4--6--8-----11--8--4--------
B|--1--2--4---------------------------------------------------------6--4--
G|------------------------------------------------------------------------
D|------------------------------------------------------------------------
A|------------------------------------------------------------------------
E|------------------------------------------------------------------------

Stave 3:

E|-----------------------------------------------------------
B|--1--2--4--4-----1--2--4--4-----------------------1-----1--
G|--------------------------------1--1--1--1-----1-----3-----
D|--------------------------------------------3--------------
A|-----------------------------------------------------------
E|-----------------------------------------------------------

Stave 4:

E|-----------------------------4--6--4--3--4--4--
B|--1--2--4--4-----1--2--4--4--------------------
G|-----------------------------------------------
D|-----------------------------------------------
A|-----------------------------------------------
E|-----------------------------------------------

Stave 5:

E|-----------------------------4--6--4--6--8--6--4--
B|--1--2--4--4-----1--2--4--4-----------------------
G|--------------------------------------------------
D|--------------------------------------------------
A|--------------------------------------------------
E|--------------------------------------------------

Stave 6:

E|--------------------------------|--------------------------------
B|-----------------------------1--|--4--------4--------4--4--6--4--
G|--1-----1--1--------1--1--3-----|--------------------------------
D|-----------------3--------------|-----6--6-----6--6--------------
A|--------------------------------|--------------------------------
E|--------------------------------|--------------------------------

Stave 7:

E|--8--6--6--8--9--8--6--4-----8-----8--6--------------------
B|--------------------------------6--------4-----1--2--4--4--
G|-----------------------------------------------------------
D|-----------------------------------------------------------
A|-----------------------------------------------------------
E|-----------------------------------------------------------

Stave 8:

E|-----------4--------------4-----3--3--3--3--6--6--4--|-----------4--------------4-----3--3--3-----6--4--
B|--1--2--4--------1--2--4-----------------------------|--1--2--4--------1--2--4--------------------------
G|-----------------------------------------------------|--------------------------------------------------
D|-----------------------------------------------------|--------------------------------------------------
A|-----------------------------------------------------|--------------------------------------------------
E|-----------------------------------------------------|--------------------------------------------------

Stave 9:

E|-----------4--------------4-----3--3--3--3--6--6--3--4--|--11--8--4-----------8--6--8-----
B|--1--2--4--------1--2--4--------------------------------|------------6--4-----------------
G|--------------------------------------------------------|---------------------------------
D|--------------------------------------------------------|---------------------------------
A|--------------------------------------------------------|---------------------------------
E|--------------------------------------------------------|---------------------------------

Stave 10:

E|--4-----4--3--------4--3-----------------------------------------------------------------
B|-----4--------4-----------4-----------------------------------1--2--1-----2--1-----6--4--
G|--------------------------------5--3--1-----1-----1-----1-----------------------3--------
D|-----------------------------------------------3-----3-----3-----------------------------
A|-----------------------------------------------------------------------------------------
E|-----------------------------------------------------------------------------------------

Stave 11:

E|-----------------4--4--3--1--------4--6--4--3--6--4--
B|--1--2--4--4-----------------4-----------------------
G|-----------------------------------------------------
D|-----------------------------------------------------
A|-----------------------------------------------------
E|-----------------------------------------------------

Stave 12:

E|--4--4--4-----4-----4--6--8-----4--|--4--11--13--11--9--8-----9--8--6-----6--8--11--8--6-----
B|-----------6-----6-----------4-----|-----------------------------------9------------------9--
G|-----------------------------------|---------------------------------------------------------
D|-----------------------------------|---------------------------------------------------------
A|-----------------------------------|---------------------------------------------------------
E|-----------------------------------|---------------------------------------------------------

Stave 13:

E|--6--8--6-----11-----13--11--13--11--|--|--|--6--8--9--11-----13--11--13--11--
B|-----------9-------------------------|--|--|----------------------------------
G|-------------------------------------|--|--|----------------------------------
D|-------------------------------------|--|--|----------------------------------
A|-------------------------------------|--|--|----------------------------------
E|-------------------------------------|--|--|----------------------------------

Stave 14:

E|-----------4--------------4-----4--8--9--8--6--4--------------4-----------------------------------------
B|--1--2--4--------1--2--4-----------------------------1--2--4--------1--2--1--2--4-----2--1--2--1--------
G|--------------------------------------------------------------------------------------------------3--1--
D|--------------------------------------------------------------------------------------------------------
A|--------------------------------------------------------------------------------------------------------
E|--------------------------------------------------------------------------------------------------------

http://www.guitartabcreator.com
Guitar Tab Creator is intended to store guitar tab created through the tool. It currently does not support in-line text editing. Any text you place in here will be lost. If you need to comment on your tab, please use the "Tab Notes" section located below.