Sound will begin in 5 seconds

For River

01234567891011121314151617181920212223
E
B
G
D
A
E
B
0 1 2 3 4 5 6 7 8 9 10 11 12 13 14 15 16 17 18 19 20 21 22 23
Song Science #1: How Pros Use 6 Chords to Write Hit Songs
(/) Slide Up  (\) Slide Down  (h) Hammer On  (p) Pull Off  (b) Bend (r) Release (v) Vibrato

Stave 1:

E|--------13--------------9-------------------------------------
B|-----9------9--------6-----6-----------11--------------13-----
G|--6---------------3-----------------6------6--------9------9--
D|---------------------------------4---------------7------------
A|--------------------------------------------------------------
E|--------------------------------------------------------------

Stave 2:

E|--11--13--13--13--13--9--16--16---------------------8---------8--11--13--11--13--11--9--11--13--14--13--
B|------------------------------------8-----8--8--10-----8--10--------------------------------------------
G|--------------------------------------------------------------------------------------------------------
D|--------------------------------------------------------------------------------------------------------
A|--------------------------------------------------------------------------------------------------------
E|--------------------------------------------------------------------------------------------------------

Stave 3:

E|----------13----------------9---------------6-----------8-----
B|--------------------------------------------------------------
G|------13------13--------10-----10--------6-----6-----8-----8--
D|--11-----------------8----------------4-----------6-----------
A|--------------------------------------------------------------
E|--------------------------------------------------------------

http://www.guitartabcreator.com
Guitar Tab Creator is intended to store guitar tab created through the tool. It currently does not support in-line text editing. Any text you place in here will be lost. If you need to comment on your tab, please use the "Tab Notes" section located below.