Sound will begin in 5 seconds

Eridan's Theme

01234567891011121314151617181920212223
E
B
G
D
A
E
B
0 1 2 3 4 5 6 7 8 9 10 11 12 13 14 15 16 17 18 19 20 21 22 23
Song Science #1: How Pros Use 6 Chords to Write Hit Songs
(/) Slide Up  (\) Slide Down  (h) Hammer On  (p) Pull Off  (b) Bend (r) Release (v) Vibrato

Stave 1:

E|--12--10--8--8--7-----5--7--8--7--------------------------------------------------
B|----------------------------------8--5--7--8--7--5--4--5-----5--3--3-----------0--
G|----------------------------------------------------------------------5--5--5-----
D|----------------------------------------------------------------------------------
A|----------------------------------------------------------------------------------
E|----------------------------------------------------------------------------------

Stave 2:

E|--------------11------11--12--12--11--12--
B|--12--11--12------12----------------------
G|------------------------------------------
D|------------------------------------------
A|------------------------------------------
E|------------------------------------------

Stave 3:

E|--0--2--3--3--5--3--2--3--2--3--2--0-----|--------------------------------5--7--
B|--------------------------------------4--|--------3--5--3-----5--4--0--4--------
G|-----------------------------------------|--5--5-----------5--------------------
D|-----------------------------------------|--------------------------------------
A|-----------------------------------------|--------------------------------------
E|-----------------------------------------|--------------------------------------

Stave 4:

E|--5--7--3--5--3--2--3--7--5--3--2--3--5-----2--3--2--0--3--2--5--2--------------------
B|--------------------------------------------------------------------4--5--5--5--4--5--
G|--------------------------------------------------------------------------------------
D|--------------------------------------------------------------------------------------
A|--------------------------------------------------------------------------------------
E|--------------------------------------------------------------------------------------

Stave 5:

E|--14--15--15--17--15--14--15--14--15--14--12--11-----------------12----------12--11------11--17--19--
B|-----------------------------------------------------13--13--15------15--13----------12--------------
G|-----------------------------------------------------------------------------------------------------
D|-----------------------------------------------------------------------------------------------------
A|-----------------------------------------------------------------------------------------------------
E|-----------------------------------------------------------------------------------------------------

Stave 6:

E|--17--19--15--17--15--14--15--19--17--15--14--15--17--
B|------------------------------------------------------
G|------------------------------------------------------
D|------------------------------------------------------
A|------------------------------------------------------
E|------------------------------------------------------

Stave 7:

E|--5--7-----5-----------7--5-----------5-----------------------5-----------------------
B|--------8-----8--7--8--------8--7--8--------7--8--7--5--8--7-----7--4--5--5--5--4--5--
G|--------------------------------------------------------------------------------------
D|--------------------------------------------------------------------------------------
A|--------------------------------------------------------------------------------------
E|--------------------------------------------------------------------------------------

Stave 8:

E|--7--7--7--5--7-----5--5--5-----5--------------------------5--7--5-----5--7-----8--8--8--7--8--|--
B|-----------------------------8--------8--8--8--7--8--7--8-----------8--------------------------|--
G|-----------------------------------------------------------------------------------------------|--
D|-----------------------------------------------------------------------------------------------|--
A|-----------------------------------------------------------------------------------------------|--
E|-----------------------------------------------------------------------------------------------|--

Stave 9:

E|--7--5-----5--7-----5--5--5--------5-----------------------
B|--------8--------------------8--7-----7--4--5--5--5--4--5--
G|-----------------------------------------------------------
D|-----------------------------------------------------------
A|-----------------------------------------------------------
E|-----------------------------------------------------------

http://www.guitartabcreator.com
Guitar Tab Creator is intended to store guitar tab created through the tool. It currently does not support in-line text editing. Any text you place in here will be lost. If you need to comment on your tab, please use the "Tab Notes" section located below.