Sound will begin in 5 seconds

Oasis - Supersonic 2

Chords
01234567891011121314151617181920212223
E
B
G
D
A
E
B
0 1 2 3 4 5 6 7 8 9 10 11 12 13 14 15 16 17 18 19 20 21 22 23
(/) Slide Up  (\) Slide Down  (h) Hammer On  (p) Pull Off  (b) Bend (r) Release (v) Vibrato

Pre - Chorus

E|--0--------------------------------------------------------0-----4--
B|--0--------------------------------------------------------0-----6--
G|--1--------------------------------------------------------1-----4--
D|--2--------------------------------------------------------2-----6--
A|--2--------4-----4--4--4--4--------4-----4--4--4--4--------2-----4--
E|--0--------2-----0--2--0--2--------2-----0--2--0--2--------0--------

Chorus - Part 1

E|--2-----0-----0-----2--
B|--3-----2-----0-----2--
G|--2-----2-----1-----2--
D|--0-----2-----2-----4--
A|--------0-----2-----4--
E|--------------0-----2--

Pre-Chorus - Bassline

E|--------------------------------------------------------------------------
B|--------------------------------------------------------------------------
G|-----------------------------------------------------------------------4--
D|--------------------------------------------------------------------3-----
A|--------------------------------------------------------------4-----------
E|--0--------2-----0--2--0--2-----2-----0--2--0--2-----0--------------------

Chorus - Part 2

E|--------------------------------
B|--------------------------------
G|--2-----------------------------
D|--0--------2--------------------
A|-----------0--------2-----------
E|--------------------0--------2--

http://www.guitartabcreator.com
Guitar Tab Creator is intended to store guitar tab created through the tool. It currently does not support in-line text editing. Any text you place in here will be lost. If you need to comment on your tab, please use the "Tab Notes" section located below.