The Watcher

01234567891011121314151617181920212223
E
B
G
D
A
E
B
0 1 2 3 4 5 6 7 8 9 10 11 12 13 14 15 16 17 18 19 20 21 22 23
(/) Slide Up  (\) Slide Down  (h) Hammer On  (p) Pull Off  (b) Bend (r) Release (v) Vibrato

Stave 1:

E|-------------------------------------------------------------------------------------------------------
B|--------10-----------10--------------8-----------8--------------5-----------5-----------7--------8-----
G|--9--9------9-----9------9-----7--7-----7-----7-----7-----5--5-----5-----5-----5-----5-----5--5-----5--
D|-------------------------------------------------------------------------------------------------------
A|-------------------------------------------------------------------------------------------------------
E|-------------------------------------------------------------------------------------------------------

Stave 2:

E|---------------------------------------------------------------------------------------------------------------------------
B|--------3-----------3--------------7-----------7----------------12-----------------10-----------------9-------------9------
G|--4--4-----4-----4-----4-----7--7-----7-----7-----7-----12--12------12-----11--11------11-----10--10-----10-----10-----10--
D|---------------------------------------------------------------------------------------------------------------------------
A|---------------------------------------------------------------------------------------------------------------------------
E|---------------------------------------------------------------------------------------------------------------------------

Stave 3:

E|----------------------------------------------------------------------------------------------12--
B|--------3-----------3--------------7-----------7----------------12-------------10---------12------
G|--4--4-----4-----4-----4-----7--7-----7-----7-----7-----12--12---------11--11---------12----------
D|--------------------------------------------------------------------------------------------------
A|--------------------------------------------------------------------------------------------------
E|--------------------------------------------------------------------------------------------------

Stave 4:

E|--14----------------12--------14----------------12--------14----------------12--------14-------------12--
B|------15------------12------------15------------12------------15------------12------------15---------12--
G|----------14--------12----------------14--------12----------------14--------12----------------14-----12--
D|--------------------14--------------------------14--------------------------14-----------------------14--
A|---------------------------------------------------------------------------------------------------------
E|---------------------------------------------------------------------------------------------------------

							http://www.guitartabcreator.com
Chords

Instruments
{"strings":[[[".",".",".",".","_",".",".",".","_",".",".",".",".","_",".",".",".","_",".",".",".",".","_",".",".",".","_",".",".",".",".",".","."],[".",".",10,".","_",".",10,".","_",".",".",8,".","_",".",8,".","_",".",".",5,".","_",".",5,".","_",".",7,".",".",8,"."],[9,9,".",9,"_",9,".",9,"_",7,7,".",7,"_",7,".",7,"_",5,5,".",5,"_",5,".",5,"_",5,".",5,5,".",5],[".",".",".",".","_",".",".",".","_",".",".",".",".","_",".",".",".","_",".",".",".",".","_",".",".",".","_",".",".",".",".",".","."],[".",".",".",".","_",".",".",".","_",".",".",".",".","_",".",".",".","_",".",".",".",".","_",".",".",".","_",".",".",".",".",".","."],[".",".",".",".","_",".",".",".","_",".",".",".",".","_",".",".",".","_",".",".",".",".","_",".",".",".","_",".",".",".",".",".","."]],[[".",".",".",".","_",".",".",".","_",".",".",".",".","_",".",".",".","_",".",".",".",".","_",".",".",".",".","_",".",".",".",".","_",".",".","."],[".",".",3,".","_",".",3,".","_",".",".",7,".","_",".",7,".","_",".",".",12,".","_",".",".",10,".","_",".",".",9,".","_",".",9,"."],[4,4,".",4,"_",4,".",4,"_",7,7,".",7,"_",7,".",7,"_",12,12,".",12,"_",11,11,".",11,"_",10,10,".",10,"_",10,".",10],[".",".",".",".","_",".",".",".","_",".",".",".",".","_",".",".",".","_",".",".",".",".","_",".",".",".",".","_",".",".",".",".","_",".",".","."],[".",".",".",".","_",".",".",".","_",".",".",".",".","_",".",".",".","_",".",".",".",".","_",".",".",".",".","_",".",".",".",".","_",".",".","."],[".",".",".",".","_",".",".",".","_",".",".",".",".","_",".",".",".","_",".",".",".",".","_",".",".",".",".","_",".",".",".",".","_",".",".","."]],[[".",".",".",".","_",".",".",".","_",".",".",".",".","_",".",".",".","_",".",".",".","_",".",".",".","_",".",".",12],[".",".",3,".","_",".",3,".","_",".",".",7,".","_",".",7,".","_",".",".",12,"_",".",".",10,"_",".",12,"."],[4,4,".",4,"_",4,".",4,"_",7,7,".",7,"_",7,".",7,"_",12,12,".","_",11,11,".","_",12,".","."],[".",".",".",".","_",".",".",".","_",".",".",".",".","_",".",".",".","_",".",".",".","_",".",".",".","_",".",".","."],[".",".",".",".","_",".",".",".","_",".",".",".",".","_",".",".",".","_",".",".",".","_",".",".",".","_",".",".","."],[".",".",".",".","_",".",".",".","_",".",".",".",".","_",".",".",".","_",".",".",".","_",".",".",".","_",".",".","."]],[[14,".",".","_","_",12,"_","_",14,".",".","_","_",12,"_","_",14,".",".","_","_",12,"_","_",14,".",".","_",12],[".",15,".","_","_",12,"_","_",".",15,".","_","_",12,"_","_",".",15,".","_","_",12,"_","_",".",15,".","_",12],[".",".",14,"_","_",12,"_","_",".",".",14,"_","_",12,"_","_",".",".",14,"_","_",12,"_","_",".",".",14,"_",12],[".",".",".","_","_",14,"_","_",".",".",".","_","_",14,"_","_",".",".",".","_","_",14,"_","_",".",".",".","_",14],[".",".",".","_","_",".","_","_",".",".",".","_","_",".","_","_",".",".",".","_","_",".","_","_",".",".",".","_","."],[".",".",".","_","_",".","_","_",".",".",".","_","_",".","_","_",".",".",".","_","_",".","_","_",".",".",".","_","."]]],"numberofstrings":6,"notes":["E","B","G","D","A","E","B"],"capo":0,"stringnotes":["E4","B3","G3","D3","A2","E2"],"comments":["Stave 1:","Stave 2:","Stave 3:","Stave 4:"],"timing":[["W","W","W","W",null,"W","W","W","W","W","W","W","W","W","W","W","W","W","W","W","W","W",null,"W","W","W","W","W","W","W","W","W","W"],["W","W","W","W",null,"W","W","W",null,"W","W","W","W",null,"W","W","W",null,"W","W","W","W",null,"W","W","W","W",null,"W","W","W","W",null,"W","W","W"],["W","W","W","W",null,"W","W","W",null,"W","W","W","W",null,"W","W","W","W","W","W","W",null,"W","W","W",null,"W","W","W"],["W","W","W",null,null,"W",null,null,"W","W","W",null,null,"W","W","W","W","W","W",null,null,"W",null,null,"W","W","W",null,"W"]],"timingvisible":false,"tabcounter":28,"stave":3,"totalstaves":4,"instrument":"6guitar","selectedtuning":"6_standard","version":"13"}

Member for

7 months
Submitted by edlb209 on Sun, 2021-02-21 21:12