The Dagger

01234567891011121314151617181920212223
E
B
G
D
A
E
B
0 1 2 3 4 5 6 7 8 9 10 11 12 13 14 15 16 17 18 19 20 21 22 23
(/) Slide Up  (\) Slide Down  (h) Hammer On  (p) Pull Off  (b) Bend (r) Release (v) Vibrato



E|-------------------------------------------------------------------------------------------
B|-------------------------------------------------------------------------------------------
G|----------14--13-----------------14--13-----------------14--13-----------------------------
D|--14--14----------14-----13--13----------14-----11--11----------14-----11--11--11--13--16--
A|-------------------------------------------------------------------------------------------
E|-------------------------------------------------------------------------------------------



E|--12----------------------------------------------------------------------
B|------14------------------12--12--12--12--12--12--12--12--12--12--12--12--
G|----------13--------------------------------------------------------------
D|--------------------------------------------------------------------------
A|--------------------------------------------------------------------------
E|--------------------------------------------------------------------------

							http://www.guitartabcreator.com
Chords

Instruments
{"strings":[[[".",".",".",".",".","_",".",".",".",".",".","_",".",".",".",".",".","_",".",".",".",".","."],[".",".",".",".",".","_",".",".",".",".",".","_",".",".",".",".",".","_",".",".",".",".","."],[".",".",14,13,".","_",".",".",14,13,".","_",".",".",14,13,".","_",".",".",".",".","."],[14,14,".",".",14,"_",13,13,".",".",14,"_",11,11,".",".",14,"_",11,11,11,13,16],[".",".",".",".",".","_",".",".",".",".",".","_",".",".",".",".",".","_",".",".",".",".","."],[".",".",".",".",".","_",".",".",".",".",".","_",".",".",".",".",".","_",".",".",".",".","."]],[[12,".",".","_","_","_","_",".",".",".",".",".",".",".",".",".",".",".","."],[".",14,".","_","_","_","_",12,12,12,12,12,12,12,12,12,12,12,12],[".",".",13,"_","_","_","_",".",".",".",".",".",".",".",".",".",".",".","."],[".",".",".","_","_","_","_",".",".",".",".",".",".",".",".",".",".",".","."],[".",".",".","_","_","_","_",".",".",".",".",".",".",".",".",".",".",".","."],[".",".",".","_","_","_","_",".",".",".",".",".",".",".",".",".",".",".","."]]],"numberofstrings":6,"notes":["E","B","G","D","A","E","B"],"capo":0,"stringnotes":["E4","B3","G3","D3","A2","E2"],"comments":["Stave 1:","Stave 2:"],"timing":[["W","W","W","W","W","W","W","W","W","W","W","W","W","W","W","W","W",null,"W","W","W","W","W"],["W","W","W",null,null,null,null,"W","W","W","W","W","W","W","W","W","W","W","W"]],"timingvisible":false,"tabcounter":19,"stave":1,"totalstaves":2,"instrument":"6guitar","selectedtuning":"6_standard","version":"13"}

Member for

7 months
Submitted by edlb209 on Sun, 2021-02-21 22:18