CShape1

Chords

01234567891011121314151617181920212223
E
B
G
D
A
E
B
0 1 2 3 4 5 6 7 8 9 10 11 12 13 14 15 16 17 18 19 20 21 22 23
(/) Slide Up  (\) Slide Down  (h) Hammer On  (p) Pull Off  (b) Bend (r) Release (v) Vibrato

Stave 1:

E|--------------------------------------------0--1--3--|--3--1--0--------------------------------------------|--
B|-----------------------------------0--1--3-----------|-----------3--1--0-----------------------------------|--
G|-----------------------------0--2--------------------|--------------------2--0-----------------------------|--
D|--------------------0--2--3--------------------------|--------------------------3--2--0--------------------|--
A|-----------0--2--3-----------------------------------|-----------------------------------3--2--0-----------|--
E|--0--1--3--------------------------------------------|--------------------------------------------3--1--0--|--

Stave 2:

E|--------------------------------------------4--5--7--|--7--5--4--------------------------------------------|--
B|-----------------------------------4--5--7-----------|-----------7--5--4-----------------------------------|--
G|-----------------------------4--6--------------------|--------------------6--4-----------------------------|--
D|--------------------4--6--7--------------------------|--------------------------7--6--4--------------------|--
A|-----------4--6--7-----------------------------------|-----------------------------------7--6--4-----------|--
E|--4--5--7--------------------------------------------|--------------------------------------------7--5--4--|--

Stave 3:

E|-----------|-----------|-----------|-----------|-----------|-----------|-----------|-----------|-----------|--
B|-----------|-----------|-----------|-----------|-----------|-----------|-----------|-----------|-----------|--
G|-----------|-----------|-----------|-----------|-----------|-----------|-----------|--------4--|-----4--6--|--
D|-----------|-----------|-----------|-----------|--------4--|-----4--6--|--4--6--7--|--6--7-----|--7--------|--
A|-----------|--------4--|-----4--6--|--4--6--7--|--6--7-----|--7--------|-----------|-----------|-----------|--
E|--4--5--7--|--5--7-----|--7--------|-----------|-----------|-----------|-----------|-----------|-----------|--

Stave 4:

E|-----------|-----------|-----------|--------4--|-----4--5--|--4--5--7--|--|--7--5--4--|--5--4-----|--4--------|--
B|--------4--|-----4--5--|--4--5--7--|--5--7-----|--7--------|-----------|--|-----------|--------7--|-----7--5--|--
G|--4--6-----|--6--------|-----------|-----------|-----------|-----------|--|-----------|-----------|-----------|--
D|-----------|-----------|-----------|-----------|-----------|-----------|--|-----------|-----------|-----------|--
A|-----------|-----------|-----------|-----------|-----------|-----------|--|-----------|-----------|-----------|--
E|-----------|-----------|-----------|-----------|-----------|-----------|--|-----------|-----------|-----------|--

Stave 5:

E|-----------|-----------|-----------|-----------|-----------|-----------|-----------|-----------|-----------|--
B|--7--5--4--|--5--4-----|--4--------|-----------|-----------|-----------|-----------|-----------|-----------|--
G|-----------|--------6--|-----6--4--|--6--4-----|--4--------|-----------|-----------|-----------|-----------|--
D|-----------|-----------|-----------|--------7--|-----7--6--|--7--6--4--|--6--4-----|--4--------|-----------|--
A|-----------|-----------|-----------|-----------|-----------|-----------|--------7--|-----7--6--|--7--6--4--|--
E|-----------|-----------|-----------|-----------|-----------|-----------|-----------|-----------|-----------|--

Stave 6:

E|-----------|-----------|-----------|--
B|-----------|-----------|-----------|--
G|-----------|-----------|-----------|--
D|-----------|-----------|-----------|--
A|--6--4-----|--4--------|-----------|--
E|--------7--|-----7--5--|--7--5--4--|--

							http://www.guitartabcreator.com
Instruments
{"strings":[[[".",".",".",".",".",".",".",".",".",".",".",".",".",".",0,1,3,"|",3,1,0,".",".",".",".",".",".",".",".",".",".",".",".",".",".","|"],[".",".",".",".",".",".",".",".",".",".",".",0,1,3,".",".",".","|",".",".",".",3,1,0,".",".",".",".",".",".",".",".",".",".",".","|"],[".",".",".",".",".",".",".",".",".",0,2,".",".",".",".",".",".","|",".",".",".",".",".",".",2,0,".",".",".",".",".",".",".",".",".","|"],[".",".",".",".",".",".",0,2,3,".",".",".",".",".",".",".",".","|",".",".",".",".",".",".",".",".",3,2,0,".",".",".",".",".",".","|"],[".",".",".",0,2,3,".",".",".",".",".",".",".",".",".",".",".","|",".",".",".",".",".",".",".",".",".",".",".",3,2,0,".",".",".","|"],[0,1,3,".",".",".",".",".",".",".",".",".",".",".",".",".",".","|",".",".",".",".",".",".",".",".",".",".",".",".",".",".",3,1,0,"|"]],[[".",".",".",".",".",".",".",".",".",".",".",".",".",".",4,5,7,"|",7,5,4,".",".",".",".",".",".",".",".",".",".",".",".",".",".","|"],[".",".",".",".",".",".",".",".",".",".",".",4,5,7,".",".",".","|",".",".",".",7,5,4,".",".",".",".",".",".",".",".",".",".",".","|"],[".",".",".",".",".",".",".",".",".",4,6,".",".",".",".",".",".","|",".",".",".",".",".",".",6,4,".",".",".",".",".",".",".",".",".","|"],[".",".",".",".",".",".",4,6,7,".",".",".",".",".",".",".",".","|",".",".",".",".",".",".",".",".",7,6,4,".",".",".",".",".",".","|"],[".",".",".",4,6,7,".",".",".",".",".",".",".",".",".",".",".","|",".",".",".",".",".",".",".",".",".",".",".",7,6,4,".",".",".","|"],[4,5,7,".",".",".",".",".",".",".",".",".",".",".",".",".",".","|",".",".",".",".",".",".",".",".",".",".",".",".",".",".",7,5,4,"|"]],[[".",".",".","|",".",".",".","|",".",".",".","|",".",".",".","|",".",".",".","|",".",".",".","|",".",".",".","|",".",".",".","|",".",".",".","|"],[".",".",".","|",".",".",".","|",".",".",".","|",".",".",".","|",".",".",".","|",".",".",".","|",".",".",".","|",".",".",".","|",".",".",".","|"],[".",".",".","|",".",".",".","|",".",".",".","|",".",".",".","|",".",".",".","|",".",".",".","|",".",".",".","|",".",".",4,"|",".",4,6,"|"],[".",".",".","|",".",".",".","|",".",".",".","|",".",".",".","|",".",".",4,"|",".",4,6,"|",4,6,7,"|",6,7,".","|",7,".",".","|"],[".",".",".","|",".",".",4,"|",".",4,6,"|",4,6,7,"|",6,7,".","|",7,".",".","|",".",".",".","|",".",".",".","|",".",".",".","|"],[4,5,7,"|",5,7,".","|",7,".",".","|",".",".",".","|",".",".",".","|",".",".",".","|",".",".",".","|",".",".",".","|",".",".",".","|"]],[[".",".",".","|",".",".",".","|",".",".",".","|",".",".",4,"|",".",4,5,"|",4,5,7,"|","|",7,5,4,"|",5,4,".","|",4,".",".","|"],[".",".",4,"|",".",4,5,"|",4,5,7,"|",5,7,".","|",7,".",".","|",".",".",".","|","|",".",".",".","|",".",".",7,"|",".",7,5,"|"],[4,6,".","|",6,".",".","|",".",".",".","|",".",".",".","|",".",".",".","|",".",".",".","|","|",".",".",".","|",".",".",".","|",".",".",".","|"],[".",".",".","|",".",".",".","|",".",".",".","|",".",".",".","|",".",".",".","|",".",".",".","|","|",".",".",".","|",".",".",".","|",".",".",".","|"],[".",".",".","|",".",".",".","|",".",".",".","|",".",".",".","|",".",".",".","|",".",".",".","|","|",".",".",".","|",".",".",".","|",".",".",".","|"],[".",".",".","|",".",".",".","|",".",".",".","|",".",".",".","|",".",".",".","|",".",".",".","|","|",".",".",".","|",".",".",".","|",".",".",".","|"]],[[".",".",".","|",".",".",".","|",".",".",".","|",".",".",".","|",".",".",".","|",".",".",".","|",".",".",".","|",".",".",".","|",".",".",".","|"],[7,5,4,"|",5,4,".","|",4,".",".","|",".",".",".","|",".",".",".","|",".",".",".","|",".",".",".","|",".",".",".","|",".",".",".","|"],[".",".",".","|",".",".",6,"|",".",6,4,"|",6,4,".","|",4,".",".","|",".",".",".","|",".",".",".","|",".",".",".","|",".",".",".","|"],[".",".",".","|",".",".",".","|",".",".",".","|",".",".",7,"|",".",7,6,"|",7,6,4,"|",6,4,".","|",4,".",".","|",".",".",".","|"],[".",".",".","|",".",".",".","|",".",".",".","|",".",".",".","|",".",".",".","|",".",".",".","|",".",".",7,"|",".",7,6,"|",7,6,4,"|"],[".",".",".","|",".",".",".","|",".",".",".","|",".",".",".","|",".",".",".","|",".",".",".","|",".",".",".","|",".",".",".","|",".",".",".","|"]],[[".",".",".","|",".",".",".","|",".",".",".","|"],[".",".",".","|",".",".",".","|",".",".",".","|"],[".",".",".","|",".",".",".","|",".",".",".","|"],[".",".",".","|",".",".",".","|",".",".",".","|"],[6,4,".","|",4,".",".","|",".",".",".","|"],[".",".",7,"|",".",7,5,"|",7,5,4,"|"]]],"numberofstrings":6,"notes":["E","B","G","D","A","E","B"],"capo":0,"stringnotes":["E4","B3","G3","D3","A2","E2"],"comments":["Stave 1:","Stave 2:","Stave 3:","Stave 4:","Stave 5:","Stave 6:"],"timing":[["W","W","W","W","W","W","W","W","W","W","W","W","W","W","W","W","W",null,"W","W","W","W","W","W","W","W","W","W","W","W","W","W","W","W","W"],["W","W","W","W","W","W","W","W","W","W","W","W","W","W","W","W","W",null,"W","W","W","W","W","W","W","W","W","W","W","W","W","W","W","W","W"],["W","W","W",null,"W","W","W",null,"W","W","W",null,"W","W","W",null,"W","W","W",null,"W","W","W",null,"W","W","W",null,"W","W","W",null,"W","W","W"],["W","W","W",null,"W","W","W",null,"W","W","W",null,"W","W","W",null,"W","W","W",null,"W","W","W",null,null,"W","W","W",null,"W","W","W",null,"W","W","W"],["W","W","W",null,"W","W","W",null,"W","W","W",null,"W","W","W",null,"W","W","W",null,"W","W","W",null,"W","W","W",null,"W","W","W",null,"W","W","W"],["W","W","W",null,"W","W","W",null,"W","W","W"]],"timingvisible":false,"tabcounter":12,"stave":5,"totalstaves":6,"instrument":"6guitar","selectedtuning":"6_standard","version":"13"}

Member for

5 years 3 months
Submitted by ebick on Tue, 2020-10-20 19:46