And Your Bird Can Sing

Chords

01234567891011121314151617181920212223
E
B
G
D
A
E
B
0 1 2 3 4 5 6 7 8 9 10 11 12 13 14 15 16 17 18 19 20 21 22 23
(/) Slide Up  (\) Slide Down  (h) Hammer On  (p) Pull Off  (b) Bend (r) Release (v) Vibrato

Stave 1:

E|--------------------------|--------------------------|-----------------------
B|-----5--4--2--4--2--------|--------------------------|--5-----5-----5--5--5--
G|--------------------4--2--|--4--2--1-----------1--4--|-----------------------
D|--------------------------|-----------4--2--4--------|-----------------------
A|--------------------------|--------------------------|-----------------------
E|--0-----------------------|--------------------------|-----------------------

Stave 2:

E|--4--------------------|--------------------------|--4-----4--4b5b4--|-----------------4-----------|--
B|-----7--5--7--5--4--5--|--4-----------------5--7--|------------------|--5--------5--7-----7--5-----|--
G|-----------------------|-----6--4--------4--------|------------------|-----4--6-----------------6--|--
D|-----------------------|-----------7--6-----------|------------------|-----------------------------|--
A|-----------------------|--------------------------|------------------|-----------------------------|--
E|-----------------------|--------------------------|------------------|-----------------------------|--

							http://www.guitartabcreator.com
Instruments
{"strings":[[[".",".",".",".",".",".",".",".","|",".",".",".",".",".",".",".",".","|",".","_",".","_",".",".","."],[".",5,4,2,4,2,".",".","|",".",".",".",".",".",".",".",".","|",5,"_",5,"_",5,5,5],[".",".",".",".",".",".",4,2,"|",4,2,1,".",".",".",1,4,"|",".","_",".","_",".",".","."],[".",".",".",".",".",".",".",".","|",".",".",".",4,2,4,".",".","|",".","_",".","_",".",".","."],[".",".",".",".",".",".",".",".","|",".",".",".",".",".",".",".",".","|",".","_",".","_",".",".","."],[0,".",".",".",".",".",".",".","|",".",".",".",".",".",".",".",".","|",".","_",".","_",".",".","."]],[[4,".",".",".",".",".",".","|",".",".",".",".",".",".",".",".","|",4,"_",4,4,"b",5,"b",4,"|",".",".",".",".",".",4,".",".",".","|"],[".",7,5,7,5,4,5,"|",4,".",".",".",".",".",5,7,"|",".","_",".",".",".",".",".",".","|",5,".",".",5,7,".",7,5,".","|"],[".",".",".",".",".",".",".","|",".",6,4,".",".",4,".",".","|",".","_",".",".",".",".",".",".","|",".",4,6,".",".",".",".",".",6,"|"],[".",".",".",".",".",".",".","|",".",".",".",7,6,".",".",".","|",".","_",".",".",".",".",".",".","|",".",".",".",".",".",".",".",".",".","|"],[".",".",".",".",".",".",".","|",".",".",".",".",".",".",".",".","|",".","_",".",".",".",".",".",".","|",".",".",".",".",".",".",".",".",".","|"],[".",".",".",".",".",".",".","|",".",".",".",".",".",".",".",".","|",".","_",".",".",".",".",".",".","|",".",".",".",".",".",".",".",".",".","|"]]],"numberofstrings":6,"notes":["E","B","G","D","A","E","B"],"capo":0,"stringnotes":["E4","B3","G3","D3","A2","E2"],"comments":["Stave 1:","Stave 2:"],"timing":[[null,null,null,null,null,null,null,null,null,null,null,null,null,null,null,null,null,null,null,null,null,null,null,null,null],[null,null,null,null,null,null,null,null,null,null,null,null,null,null,null,null,null,null,null,null,null,null,null,null,null,null,null,null,null,null,null,null,null,null,null]],"timingvisible":false,"tabcounter":36,"stave":1,"totalstaves":2,"instrument":"6guitar","selectedtuning":"6_standard","version":"13"}

Member for

5 years 3 months
Submitted by ebick on Tue, 2020-10-20 20:04