Amie Intro Lead

01234567891011121314151617181920212223
E
B
G
D
A
E
B
0 1 2 3 4 5 6 7 8 9 10 11 12 13 14 15 16 17 18 19 20 21 22 23
(/) Slide Up  (\) Slide Down  (h) Hammer On  (p) Pull Off  (b) Bend (r) Release (v) Vibrato

Stave 1:

E|------------------|------------------------|--
B|------------------|-------5--7--5----------|--
G|-------2--2--4p2--|--4/6-----------6p4-----|--
D|--2h4-------------|---------------------7--|--
A|------------------|------------------------|--
E|------------------|------------------------|--

Stave 2:

E|------------------|-------------|--
B|------------------|-------------|--
G|-------2--2--4p2--|--4h6--4--4--|--
D|--2h4-------------|-------------|--
A|------------------|-------------|--
E|------------------|-------------|--

Stave 3:

E|------------------|-------------5-----5--|-----5--------------|--
B|------------------|-------5--7-----7-----|--7-----7--5--7--5--|--
G|-------2--2--4p2--|--4/6-----------------|--------------------|--
D|--2h4-------------|----------------------|--------------------|--
A|------------------|----------------------|--------------------|--
E|------------------|----------------------|--------------------|--

Stave 4:

E|-------------------------------|--
B|--5-----5--7--5----------------|--
G|-----------------6--6\4--2-----|--
D|----------------------------4--|--
A|-------------------------------|--
E|-------------------------------|--

							http://www.guitartabcreator.com
Chords

genre
Instruments
{"strings":[[[".",".",".",".",".",".",".",".","|",".",".",".",".",".",".",".",".",".",".","|"],[".",".",".",".",".",".",".",".","|",".",".",".",5,7,5,".",".",".",".","|"],[".",".",".",2,2,4,"p",2,"|",4,"/",6,".",".",".",6,"p",4,".","|"],[2,"h",4,".",".",".",".",".","|",".",".",".",".",".",".",".",".",".",7,"|"],[".",".",".",".",".",".",".",".","|",".",".",".",".",".",".",".",".",".",".","|"],[".",".",".",".",".",".",".",".","|",".",".",".",".",".",".",".",".",".",".","|"]],[[".",".",".",".",".",".",".",".","|",".",".",".",".",".","|"],[".",".",".",".",".",".",".",".","|",".",".",".",".",".","|"],[".",".",".",2,2,4,"p",2,"|",4,"h",6,4,4,"|"],[2,"h",4,".",".",".",".",".","|",".",".",".",".",".","|"],[".",".",".",".",".",".",".",".","|",".",".",".",".",".","|"],[".",".",".",".",".",".",".",".","|",".",".",".",".",".","|"]],[[".",".",".",".",".",".",".",".","|",".",".",".",".",".",5,".",5,"|",".",5,".",".",".",".","|"],[".",".",".",".",".",".",".",".","|",".",".",".",5,7,".",7,".","|",7,".",7,5,7,5,"|"],[".",".",".",2,2,4,"p",2,"|",4,"/",6,".",".",".",".",".","|",".",".",".",".",".",".","|"],[2,"h",4,".",".",".",".",".","|",".",".",".",".",".",".",".",".","|",".",".",".",".",".",".","|"],[".",".",".",".",".",".",".",".","|",".",".",".",".",".",".",".",".","|",".",".",".",".",".",".","|"],[".",".",".",".",".",".",".",".","|",".",".",".",".",".",".",".",".","|",".",".",".",".",".",".","|"]],[[".","_",".",".",".",".",".",".",".",".",".","|"],[5,"_",5,7,5,".",".",".",".",".",".","|"],[".","_",".",".",".",6,6,"\\",4,2,".","|"],[".","_",".",".",".",".",".",".",".",".",4,"|"],[".","_",".",".",".",".",".",".",".",".",".","|"],[".","_",".",".",".",".",".",".",".",".",".","|"]]],"numberofstrings":6,"notes":["E","B","G","D","A","E","B"],"capo":0,"stringnotes":["E4","B3","G3","D3","A2","E2"],"comments":["Stave 1:","Stave 2:","Stave 3:","Stave 4:"],"timing":[["W",null,"W","W","W","W",null,"W",null,"W",null,"W","W","W","W","W",null,"W","W"],["W",null,"W","W","W","W",null,"W",null,"W",null,"W","W","W"],["W",null,"W","W","W","W",null,"W",null,"W",null,"W","W","W","W","W","W","W","W","W","W","W","W","W",null,"W","W","W","W",null,"W","W","W","W","W"],["W",null,"W","W","W","W","W",null,"W","W","W"]],"timingvisible":false,"tabcounter":12,"stave":3,"totalstaves":4,"instrument":"6guitar","selectedtuning":"6_standard","version":"13"}

Member for

5 years 5 months
Submitted by ebick on Mon, 2021-02-22 20:06