Sound will begin in 5 seconds

E - Minor Pentatonic (Albert King)

01234567891011121314151617181920212223
E
B
G
D
A
E
B
0 1 2 3 4 5 6 7 8 9 10 11 12 13 14 15 16 17 18 19 20 21 22 23
Song Science #1: How Pros Use 6 Chords to Write Hit Songs
(/) Slide Up  (\) Slide Down  (h) Hammer On  (p) Pull Off  (b) Bend (r) Release (v) Vibrato

Stave 1:

E|--15--12------------------------------------------
B|----------15--12----------------------------------
G|------------------14--12--------------------------
D|--------------------------14--12------------------
A|----------------------------------14--12----------
E|------------------------------------------15--12--

Stave 2:

E|--17b19--15-------
B|-------------17v--
G|------------------
D|------------------
A|------------------
E|------------------

Stave 3:

E|----------------------------------
B|--15--12--------------------------
G|----------14b15--14--12------12v--
D|-------------------------14-------
A|----------------------------------
E|----------------------------------

Stave 4:

E|--12--12--|--15b16--15b16--15b16--15b17v--|--12h15p12v--
B|----------|-------------------------------|-------------
G|----------|-------------------------------|-------------
D|----------|-------------------------------|-------------
A|----------|-------------------------------|-------------
E|----------|-------------------------------|-------------

Stave 5:

E|---------15--17b19--15-------
B|--15/17-----------------17v--
G|-----------------------------
D|-----------------------------
A|-----------------------------
E|-----------------------------

Stave 6:

E|---------12------15b16--12v--
B|--10/12------12--------------
G|-----------------------------
D|-----------------------------
A|-----------------------------
E|-----------------------------

Stave 7:

E|--17b19--15b16--17-------
B|--------------------17v--
G|-------------------------
D|-------------------------
A|-------------------------
E|-------------------------

Stave 8:

E|---------12------14p12--------------
B|--10/12------12---------15p12--15v--
G|------------------------------------
D|------------------------------------
A|------------------------------------
E|------------------------------------

Stave 9:

E|------15--17b19--15h17v--|--15b16--12------15b16--12------15b16--12------15v--
B|--17---------------------|-------------12-------------12-------------12-------
G|-------------------------|----------------------------------------------------
D|-------------------------|----------------------------------------------------
A|-------------------------|----------------------------------------------------
E|-------------------------|----------------------------------------------------

Stave 10:

E|--15b17r16b17--12v--
B|--------------------
G|--------------------
D|--------------------
A|--------------------
E|--------------------

http://www.guitartabcreator.com
Guitar Tab Creator is intended to store guitar tab created through the tool. It currently does not support in-line text editing. Any text you place in here will be lost. If you need to comment on your tab, please use the "Tab Notes" section located below.