Sound will begin in 5 seconds

twenty one pilots - ride

Chords
01234567891011121314151617181920212223
E
B
G
D
A
E
B
0 1 2 3 4 5 6 7 8 9 10 11 12 13 14 15 16 17 18 19 20 21 22 23
Song Science #1: How Pros Use 6 Chords to Write Hit Songs
(/) Slide Up  (\) Slide Down  (h) Hammer On  (p) Pull Off  (b) Bend (r) Release (v) Vibrato

Stave 1:

A|--9--9--9--6--|--6--6--6--6--|--
E|--6--6--6--7--|--6--6--6--7--|--
A|--6--6--6--8--|--6--6--6--6--|--
G|--6--6--6--8--|--8--8--8--8--|--

Stave 2:

A|--------------9--9--------6--6--|--
E|--6--6--------------------------|--
A|--------------------------------|--
G|--------------------------------|--

Stave 3:

A|-----------------------------------9--9--8--8--6--6--|--
E|--6--6--6--6--6-----6--9--6--9-----------------------|--
A|-----------------------------------------------------|--
G|-----------------------------------------------------|--

Stave 4:

A|----------------------------------------------------------|-----------------------------|--
E|--6--9--6--9--6-----9-----9--11--9--11--9-----14--13--11--|--6--9--6--9--7--6--9--7--6--|--
A|----------------------------------------------------------|-----------------------------|--
G|----------------------------------------------------------|-----------------------------|--

Stave 5:

A|-----------------------|--------------------------------|--
E|--6-----4--6--7--6-----|--6-----9--7--6-----9--7--6-----|--
A|-----------------------|--------------------------------|--
G|-----------------------|--------------------------------|--

http://www.guitartabcreator.com
Guitar Tab Creator is intended to store guitar tab created through the tool. It currently does not support in-line text editing. Any text you place in here will be lost. If you need to comment on your tab, please use the "Tab Notes" section located below.