Sound will begin in 5 seconds

lANE bOY - TWENTY ONE PILOTS

01234567891011121314151617181920212223
E
B
G
D
A
E
B
0 1 2 3 4 5 6 7 8 9 10 11 12 13 14 15 16 17 18 19 20 21 22 23
Song Science #1: How Pros Use 6 Chords to Write Hit Songs
(/) Slide Up  (\) Slide Down  (h) Hammer On  (p) Pull Off  (b) Bend (r) Release (v) Vibrato

Stave 1:

A|---------5---|-----------12----|-----------12----|-----------12----|-
E|-------5-----|--------12-------|--------12-------|--------12-------|-
A|-2-5-5-----5-|-7-9-12-------12-|-7-9-12-------12-|-7-9-12-------12-|-
G|-------------|-----------------|-----------------|-----------------|-

Stave 2:

A|-5-5-5-5-3--------------------3-3-2-0-2-0----
E|--------------5-5----5-5----5----------------
A|---------------------------------------------
G|---------------------------------------------

Stave 3:

A|-------------------|-------------------|-
E|-9-9-9-9-9-9-9-9\7-|-9-9-9-9-9-9-9-9\7-|-
A|-------------------|-------------------|-
G|-------------------|-------------------|-

Stave 4:

A|-----------------|-------------------------|-------------------------|-------------------------|-
E|-----------------|-------------------------|-------------------------|-------------------------|-
A|-9-9-9-9-9-9-9-9-|-12-12-12-12-12-12-12-12-|-16-16-16-16-16-16-16-16-|-14-14-14-14-14-14-14-14-|-
G|-----------------|-------------------------|-------------------------|-------------------------|-

http://www.guitartabcreator.com
Guitar Tab Creator is intended to store guitar tab created through the tool. It currently does not support in-line text editing. Any text you place in here will be lost. If you need to comment on your tab, please use the "Tab Notes" section located below.